  0
SECTION
  2
HEADER
  9
$ACADVER
  1
AC1015
  9
$ACADMAINTVER
 70
     6
  9
$DWGCODEPAGE
  3
ANSI_1254
  9
$INSBASE
 10
0.0
 20
0.0
 30
0.0
  9
$EXTMIN
 10
0.0
 20
0.0
 30
0.0
  9
$EXTMAX
 10
279.4
 20
215.9
 30
0.0
  9
$LIMMIN
 10
0.0
 20
0.0
  9
$LIMMAX
 10
279.4
 20
215.9
  9
$ORTHOMODE
 70
     0
  9
$REGENMODE
 70
     1
  9
$FILLMODE
 70
     1
  9
$QTEXTMODE
 70
     0
  9
$MIRRTEXT
 70
     1
  9
$LTSCALE
 40
1.0
  9
$ATTMODE
 70
     1
  9
$TEXTSIZE
 40
3.5
  9
$TRACEWID
 40
1.0
  9
$TEXTSTYLE
  7
Standard
  9
$CLAYER
  8
0
  9
$CELTYPE
  6
ByLayer
  9
$CECOLOR
 62
   256
  9
$CELTSCALE
 40
1.0
  9
$DISPSILH
 70
     0
  9
$DIMSCALE
 40
1.0
  9
$DIMASZ
 40
3.5
  9
$DIMEXO
 40
1.0
  9
$DIMDLI
 40
3.75
  9
$DIMRND
 40
0.0
  9
$DIMDLE
 40
0.0
  9
$DIMEXE
 40
1.0
  9
$DIMTP
 40
0.0
  9
$DIMTM
 40
0.0
  9
$DIMTXT
 40
3.5
  9
$DIMCEN
 40
2.5
  9
$DIMTSZ
 40
0.0
  9
$DIMTOL
 70
     0
  9
$DIMLIM
 70
     0
  9
$DIMTIH
 70
     1
  9
$DIMTOH
 70
     1
  9
$DIMSE1
 70
     0
  9
$DIMSE2
 70
     0
  9
$DIMTAD
 70
     1
  9
$DIMZIN
 70
     0
  9
$DIMBLK
  1

  9
$DIMASO
 70
     1
  9
$DIMSHO
 70
     1
  9
$DIMPOST
  1

  9
$DIMAPOST
  1

  9
$DIMALT
 70
     0
  9
$DIMALTD
 70
     3
  9
$DIMALTF
 40
0.0393700787
  9
$DIMLFAC
 40
1.0
  9
$DIMTOFL
 70
     1
  9
$DIMTVP
 40
0.0
  9
$DIMTIX
 70
     0
  9
$DIMSOXD
 70
     0
  9
$DIMSAH
 70
     0
  9
$DIMBLK1
  1

  9
$DIMBLK2
  1

  9
$DIMSTYLE
  2
ISO-25
  9
$DIMCLRD
 70
     0
  9
$DIMCLRE
 70
     0
  9
$DIMCLRT
 70
     0
  9
$DIMTFAC
 40
1.0
  9
$DIMGAP
 40
1.524
  9
$DIMJUST
 70
     0
  9
$DIMSD1
 70
     0
  9
$DIMSD2
 70
     0
  9
$DIMTOLJ
 70
     0
  9
$DIMTZIN
 70
     0
  9
$DIMALTZ
 70
     0
  9
$DIMALTTZ
 70
     0
  9
$DIMUPT
 70
     0
  9
$DIMDEC
 70
     2
  9
$DIMTDEC
 70
     2
  9
$DIMALTU
 70
     2
  9
$DIMALTTD
 70
     3
  9
$DIMTXSTY
  7
Standard
  9
$DIMAUNIT
 70
     0
  9
$DIMADEC
 70
     2
  9
$DIMALTRND
 40
0.0
  9
$DIMAZIN
 70
     0
  9
$DIMDSEP
 70
    44
  9
$DIMATFIT
 70
     3
  9
$DIMFRAC
 70
     0
  9
$DIMLDRBLK
  1

  9
$DIMLUNIT
 70
     2
  9
$DIMLWD
 70
    -2
  9
$DIMLWE
 70
    -2
  9
$DIMTMOVE
 70
     0
  9
$LUNITS
 70
     2
  9
$LUPREC
 70
     2
  9
$SKETCHINC
 40
1.0
  9
$FILLETRAD
 40
10.0
  9
$AUNITS
 70
     0
  9
$AUPREC
 70
     2
  9
$MENU
  1
.
  9
$ELEVATION
 40
0.0
  9
$PELEVATION
 40
0.0
  9
$THICKNESS
 40
0.0
  9
$LIMCHECK
 70
     0
  9
$CHAMFERA
 40
0.0
  9
$CHAMFERB
 40
0.0
  9
$CHAMFERC
 40
0.0
  9
$CHAMFERD
 40
0.0
  9
$SKPOLY
 70
     0
  9
$TDCREATE
 40
2459741.601774572
  9
$TDUCREATE
 40
2459741.476774572
  9
$TDUPDATE
 40
2459741.601774826
  9
$TDUUPDATE
 40
2459741.476774826
  9
$TDINDWG
 40
0.0000000116
  9
$TDUSRTIMER
 40
0.0000000116
  9
$USRTIMER
 70
     1
  9
$ANGBASE
 50
0.0
  9
$ANGDIR
 70
     0
  9
$PDMODE
 70
     0
  9
$PDSIZE
 40
-1.0
  9
$PLINEWID
 40
0.0
  9
$SPLFRAME
 70
     0
  9
$SPLINETYPE
 70
     6
  9
$SPLINESEGS
 70
     8
  9
$HANDSEED
  5
12B
  9
$SURFTAB1
 70
     6
  9
$SURFTAB2
 70
     6
  9
$SURFTYPE
 70
     6
  9
$SURFU
 70
     6
  9
$SURFV
 70
     6
  9
$UCSBASE
  2

  9
$UCSNAME
  2

  9
$UCSORG
 10
0.0
 20
0.0
 30
0.0
  9
$UCSXDIR
 10
1.0
 20
0.0
 30
0.0
  9
$UCSYDIR
 10
0.0
 20
1.0
 30
0.0
  9
$UCSORTHOREF
  2

  9
$UCSORTHOVIEW
 70
     0
  9
$UCSORGTOP
 10
0.0
 20
0.0
 30
0.0
  9
$UCSORGBOTTOM
 10
0.0
 20
0.0
 30
0.0
  9
$UCSORGLEFT
 10
0.0
 20
0.0
 30
0.0
  9
$UCSORGRIGHT
 10
0.0
 20
0.0
 30
0.0
  9
$UCSORGFRONT
 10
0.0
 20
0.0
 30
0.0
  9
$UCSORGBACK
 10
0.0
 20
0.0
 30
0.0
  9
$PUCSBASE
  2

  9
$PUCSNAME
  2

  9
$PUCSORG
 10
0.0
 20
0.0
 30
0.0
  9
$PUCSXDIR
 10
1.0
 20
0.0
 30
0.0
  9
$PUCSYDIR
 10
0.0
 20
1.0
 30
0.0
  9
$PUCSORTHOREF
  2

  9
$PUCSORTHOVIEW
 70
     0
  9
$PUCSORGTOP
 10
0.0
 20
0.0
 30
0.0
  9
$PUCSORGBOTTOM
 10
0.0
 20
0.0
 30
0.0
  9
$PUCSORGLEFT
 10
0.0
 20
0.0
 30
0.0
  9
$PUCSORGRIGHT
 10
0.0
 20
0.0
 30
0.0
  9
$PUCSORGFRONT
 10
0.0
 20
0.0
 30
0.0
  9
$PUCSORGBACK
 10
0.0
 20
0.0
 30
0.0
  9
$USERI1
 70
     0
  9
$USERI2
 70
     0
  9
$USERI3
 70
     0
  9
$USERI4
 70
     0
  9
$USERI5
 70
     0
  9
$USERR1
 40
0.0
  9
$USERR2
 40
0.0
  9
$USERR3
 40
0.0
  9
$USERR4
 40
0.0
  9
$USERR5
 40
0.0
  9
$WORLDVIEW
 70
     1
  9
$SHADEDGE
 70
     3
  9
$SHADEDIF
 70
    70
  9
$TILEMODE
 70
     1
  9
$MAXACTVP
 70
    64
  9
$PINSBASE
 10
0.0
 20
0.0
 30
0.0
  9
$PLIMCHECK
 70
     0
  9
$PEXTMIN
 10
1.0000000000E+20
 20
1.0000000000E+20
 30
1.0000000000E+20
  9
$PEXTMAX
 10
-1.0000000000E+20
 20
-1.0000000000E+20
 30
-1.0000000000E+20
  9
$PLIMMIN
 10
0.0
 20
0.0
  9
$PLIMMAX
 10
420.0
 20
297.0
  9
$UNITMODE
 70
     0
  9
$VISRETAIN
 70
     1
  9
$PLINEGEN
 70
     0
  9
$PSLTSCALE
 70
     1
  9
$TREEDEPTH
 70
  3020
  9
$CMLSTYLE
  2
Standard
  9
$CMLJUST
 70
     0
  9
$CMLSCALE
 40
20.0
  9
$PROXYGRAPHICS
 70
     1
  9
$MEASUREMENT
 70
     1
  9
$CELWEIGHT
370
    -1
  9
$ENDCAPS
280
     0
  9
$JOINSTYLE
280
     0
  9
$LWDISPLAY
290
     1
  9
$INSUNITS
 70
     4
  9
$HYPERLINKBASE
  1

  9
$STYLESHEET
  1

  9
$XEDIT
290
     1
  9
$CEPSNTYPE
380
     0
  9
$PSTYLEMODE
290
     1
  9
$FINGERPRINTGUID
  2
{e9b0a111-3fab-4764-ae8a-a03da04f93f9}
  9
$VERSIONGUID
  2
{FAEB1C32-E019-11D5-929B-00C0DF256EC4}
  9
$EXTNAMES
290
     1
  9
$PSVPSCALE
 40
0.0
  9
$OLESTARTUP
290
     0
  0
ENDSEC
  0
SECTION
  2
CLASSES
  0
CLASS
  1
ACDBDICTIONARYWDFLT
  2
AcDbDictionaryWithDefault
  3
ObjectDBX Classes
 90
        0
280
     0
281
     0
  0
CLASS
  1
VISUALSTYLE
  2
AcDbVisualStyle
  3
ObjectDBX Classes
 90
     4095
280
     0
281
     0
  0
CLASS
  1
MATERIAL
  2
AcDbMaterial
  3
ObjectDBX Classes
 90
     1153
280
     0
281
     0
  0
CLASS
  1
SCALE
  2
AcDbScale
  3
ObjectDBX Classes
 90
     1153
280
     0
281
     0
  0
CLASS
  1
TABLESTYLE
  2
AcDbTableStyle
  3
ObjectDBX Classes
 90
     4095
280
     0
281
     0
  0
CLASS
  1
MLEADERSTYLE
  2
AcDbMLeaderStyle
  3
ACDB_MLEADERSTYLE_CLASS
 90
     4095
280
     0
281
     0
  0
CLASS
  1
SUN
  2
AcDbSun
  3
SCENEOE
 90
     1153
280
     0
281
     0
  0
CLASS
  1
ACDBPLACEHOLDER
  2
AcDbPlaceHolder
  3
ObjectDBX Classes
 90
        0
280
     0
281
     0
  0
CLASS
  1
LAYOUT
  2
AcDbLayout
  3
ObjectDBX Classes
 90
        0
280
     0
281
     0
  0
ENDSEC
  0
SECTION
  2
TABLES
  0
TABLE
  2
VPORT
  5
8
330
0
100
AcDbSymbolTable
 70
     1
  0
VPORT
  5
29
330
8
100
AcDbSymbolTableRecord
100
AcDbViewportTableRecord
  2
*Active
 70
     0
 10
0.0
 20
0.0
 11
1.0
 21
1.0
 12
139.7
 22
107.95
 13
0.0
 23
0.0
 14
10.0
 24
10.0
 15
10.0
 25
10.0
 16
0.0
 26
0.0
 36
1.0
 17
0.0
 27
0.0
 37
0.0
 40
215.9
 41
1.2941176471
 42
50.0
 43
0.0
 44
0.0
 50
0.0
 51
0.0
 71
     0
 72
  2000
 73
     1
 74
     3
 75
     0
 76
     0
 77
     0
 78
     0
281
     0
 65
     1
110
0.0
120
0.0
130
0.0
111
1.0
121
0.0
131
0.0
112
0.0
122
1.0
132
0.0
 79
     0
146
0.0
  0
ENDTAB
  0
TABLE
  2
LTYPE
  5
5
330
0
100
AcDbSymbolTable
 70
     6
  0
LTYPE
  5
14
330
5
100
AcDbSymbolTableRecord
100
AcDbLinetypeTableRecord
  2
ByBlock
 70
     0
  3

 72
    65
 73
     0
 40
0.0
  0
LTYPE
  5
15
330
5
100
AcDbSymbolTableRecord
100
AcDbLinetypeTableRecord
  2
ByLayer
 70
     0
  3

 72
    65
 73
     0
 40
0.0
  0
LTYPE
  5
16
330
5
100
AcDbSymbolTableRecord
100
AcDbLinetypeTableRecord
  2
Continuous
 70
     0
  3
Solid line
 72
    65
 73
     0
 40
0.0
  0
LTYPE
  5
6E
330
5
100
AcDbSymbolTableRecord
100
AcDbLinetypeTableRecord
  2
HIDDEN
 70
     0
  3
Hidden __ __ __ __ __ __ __ __ __ __ __ __ __ __
 72
    65
 73
     2
 40
1.905
 49
1.27
 74
     0
 49
-0.635
 74
     0
  0
LTYPE
  5
6F
330
5
100
AcDbSymbolTableRecord
100
AcDbLinetypeTableRecord
  2
PHANTOM
 70
     0
  3
Phantom ______  __  __  ______  __  __  ______
 72
    65
 73
     6
 40
12.7
 49
6.35
 74
     0
 49
-1.27
 74
     0
 49
1.27
 74
     0
 49
-1.27
 74
     0
 49
1.27
 74
     0
 49
-1.27
 74
     0
  0
LTYPE
  5
70
330
5
100
AcDbSymbolTableRecord
100
AcDbLinetypeTableRecord
  2
CENTER
 70
     0
  3
Center ____ _ ____ _ ____ _ ____ _ ____ _ ____
 72
    65
 73
     4
 40
10.16
 49
6.35
 74
     0
 49
-1.27
 74
     0
 49
1.27
 74
     0
 49
-1.27
 74
     0
  0
LTYPE
  5
71
330
5
100
AcDbSymbolTableRecord
100
AcDbLinetypeTableRecord
  2
CENTERX2
 70
     0
  3
Center (2x) ________  __  ________  __  _____
 72
    65
 73
     4
 40
20.32
 49
12.7
 74
     0
 49
-2.54
 74
     0
 49
2.54
 74
     0
 49
-2.54
 74
     0
  0
LTYPE
  5
72
330
5
100
AcDbSymbolTableRecord
100
AcDbLinetypeTableRecord
  2
DOT2
 70
     0
  3
Dot (.5x) ........................................
 72
    65
 73
     2
 40
0.635
 49
0.0
 74
     0
 49
-0.635
 74
     0
  0
ENDTAB
  0
TABLE
  2
LAYER
  5
2
330
0
100
AcDbSymbolTable
 70
    17
  0
LAYER
  5
10
330
2
100
AcDbSymbolTableRecord
100
AcDbLayerTableRecord
  2
0
 70
     0
 62
     7
  6
Continuous
370
    -3
390
F
  0
LAYER
  5
73
330
2
100
AcDbSymbolTableRecord
100
AcDbLayerTableRecord
  2
FORMAT
 70
     0
 62
     7
  6
Continuous
370
    -3
390
F
  0
LAYER
  5
74
330
2
100
AcDbSymbolTableRecord
100
AcDbLayerTableRecord
  2
YARDIMCI_GEOMETRI
 70
     0
 62
    -6
  6
Continuous
290
     0
370
    -3
390
F
  0
LAYER
  5
75
330
2
100
AcDbSymbolTableRecord
100
AcDbLayerTableRecord
  2
SAYFA_CERCEVESI
 70
     0
 62
     7
  6
Continuous
370
    25
390
F
  0
LAYER
  5
76
330
2
100
AcDbSymbolTableRecord
100
AcDbLayerTableRecord
  2
ANTET
 70
     0
 62
     7
  6
Continuous
370
    -3
390
F
  0
LAYER
  5
77
330
2
100
AcDbSymbolTableRecord
100
AcDbLayerTableRecord
  2
OLCU
 70
     0
 62
   150
  6
Continuous
370
    -3
390
F
  0
LAYER
  5
78
330
2
100
AcDbSymbolTableRecord
100
AcDbLayerTableRecord
  2
METIN
 70
     0
 62
    96
  6
Continuous
370
    -3
390
F
  0
LAYER
  5
79
330
2
100
AcDbSymbolTableRecord
100
AcDbLayerTableRecord
  2
BALON
 70
     0
 62
     5
  6
Continuous
370
    -3
390
F
  0
LAYER
  5
7A
330
2
100
AcDbSymbolTableRecord
100
AcDbLayerTableRecord
  2
VURGU
 70
     0
 62
     7
  6
Continuous
370
    -3
390
F
  0
LAYER
  5
7B
330
2
100
AcDbSymbolTableRecord
100
AcDbLayerTableRecord
  2
SILIK
 70
     0
 62
     7
  6
Continuous
370
    -3
390
F
  0
LAYER
  5
7C
330
2
100
AcDbSymbolTableRecord
100
AcDbLayerTableRecord
  2
MODEL
 70
     0
 62
     7
  6
Continuous
370
    -3
390
F
  0
LAYER
  5
7D
330
2
100
AcDbSymbolTableRecord
100
AcDbLayerTableRecord
  2
DETAYLANDıRMA
 70
     0
 62
   190
  6
Continuous
370
    -3
390
F
  0
LAYER
  5
7E
330
2
100
AcDbSymbolTableRecord
100
AcDbLayerTableRecord
  2
TOLERANS
 70
     0
 62
   230
  6
Continuous
370
    -3
390
F
  0
LAYER
  5
7F
330
2
100
AcDbSymbolTableRecord
100
AcDbLayerTableRecord
  2
MERKEZ_CIZGILERI
 70
     0
 62
    30
  6
Continuous
370
    -3
390
F
  0
LAYER
  5
80
330
2
100
AcDbSymbolTableRecord
100
AcDbLayerTableRecord
  2
KESIT-DETAY_CIZGILERI
 70
     0
 62
     7
  6
Continuous
370
    -3
390
F
  0
LAYER
  5
81
330
2
100
AcDbSymbolTableRecord
100
AcDbLayerTableRecord
  2
\U+041E\U+0421\U+0415\U+0412\U+042B\U+0415
 70
     0
 62
     7
  6
Continuous
370
    -3
390
F
  0
LAYER
  5
82
330
2
100
AcDbSymbolTableRecord
100
AcDbLayerTableRecord
  2
\U+0412\U+041E\U+0414\U+042F\U+041D\U+042B\U+0415_\U+0417\U+041D\U+0410\U+041A\U+0418
 70
     0
 62
    11
  6
Continuous
370
    -3
390
F
  0
ENDTAB
  0
TABLE
  2
STYLE
  5
3
330
0
100
AcDbSymbolTable
 70
     1
  0
STYLE
  5
11
330
3
100
AcDbSymbolTableRecord
100
AcDbTextStyleTableRecord
  2
Standard
 70
     0
 40
0.0
 41
1.0
 50
0.0
 71
     0
 42
3.5
  3
txt
  4

  0
ENDTAB
  0
TABLE
  2
VIEW
  5
6
330
0
100
AcDbSymbolTable
 70
     0
  0
ENDTAB
  0
TABLE
  2
UCS
  5
7
330
0
100
AcDbSymbolTable
 70
     0
  0
ENDTAB
  0
TABLE
  2
APPID
  5
9
330
0
100
AcDbSymbolTable
 70
     1
  0
APPID
  5
12
330
9
100
AcDbSymbolTableRecord
100
AcDbRegAppTableRecord
  2
ACAD
 70
     0
  0
ENDTAB
  0
TABLE
  2
DIMSTYLE
  5
A
330
0
100
AcDbSymbolTable
 70
     1
100
AcDbDimStyleTable
  0
DIMSTYLE
105
27
330
A
100
AcDbSymbolTableRecord
100
AcDbDimStyleTableRecord
  2
ISO-25
 70
     0
 41
2.5
 42
0.625
 43
3.75
 44
1.25
 73
     0
 74
     0
 77
     1
 78
     8
140
2.5
141
2.5
143
0.0393700787
147
0.625
171
     3
172
     1
178
     0
271
     2
272
     2
274
     3
278
    44
283
     0
284
     8
340
11
  0
ENDTAB
  0
TABLE
  2
BLOCK_RECORD
  5
1
330
0
100
AcDbSymbolTable
 70
     4
  0
BLOCK_RECORD
  5
1F
330
1
100
AcDbSymbolTableRecord
100
AcDbBlockTableRecord
  2
*Model_Space
340
22
  0
BLOCK_RECORD
  5
1B
330
1
100
AcDbSymbolTableRecord
100
AcDbBlockTableRecord
  2
*Paper_Space
340
1E
  0
BLOCK_RECORD
  5
23
330
1
100
AcDbSymbolTableRecord
100
AcDbBlockTableRecord
  2
*Paper_Space0
340
26
  0
BLOCK_RECORD
  5
93
330
1
100
AcDbSymbolTableRecord
100
AcDbBlockTableRecord
  2
SW_CENTERMARKSYMBOL_0
340
0
102
{BLKREFS
331
9E
102
}
  0
BLOCK_RECORD
  5
E9
330
1
100
AcDbSymbolTableRecord
100
AcDbBlockTableRecord
  2
SW_CENTERMARKSYMBOL_1
340
0
102
{BLKREFS
331
F4
102
}
  0
BLOCK_RECORD
  5
F5
330
1
100
AcDbSymbolTableRecord
100
AcDbBlockTableRecord
  2
SW_CENTERMARKSYMBOL_2
340
0
102
{BLKREFS
331
100
102
}
  0
ENDTAB
  0
ENDSEC
  0
SECTION
  2
BLOCKS
  0
BLOCK
  5
20
330
1F
100
AcDbEntity
  8
0
100
AcDbBlockBegin
  2
*Model_Space
 70
     0
 10
0.0
 20
0.0
 30
0.0
  3
*Model_Space
  1

  0
ENDBLK
  5
21
330
1F
100
AcDbEntity
  8
0
100
AcDbBlockEnd
  0
BLOCK
  5
1C
330
1B
100
AcDbEntity
 67
     1
  8
0
100
AcDbBlockBegin
  2
*Paper_Space
 70
     0
 10
0.0
 20
0.0
 30
0.0
  3
*Paper_Space
  1

  0
ENDBLK
  5
1D
330
1B
100
AcDbEntity
 67
     1
  8
0
100
AcDbBlockEnd
  0
BLOCK
  5
24
330
23
100
AcDbEntity
  8
0
100
AcDbBlockBegin
  2
*Paper_Space0
 70
     0
 10
0.0
 20
0.0
 30
0.0
  3
*Paper_Space0
  1

  0
ENDBLK
  5
25
330
23
100
AcDbEntity
  8
0
100
AcDbBlockEnd
  0
BLOCK
  5
94
330
93
100
AcDbEntity
  8
0
100
AcDbBlockBegin
  2
SW_CENTERMARKSYMBOL_0
 70
     0
 10
0.0
 20
0.0
 30
0.0
  3
SW_CENTERMARKSYMBOL_0
  1

  0
LINE
  5
96
330
93
100
AcDbEntity
  8
FORMAT
 62
     0
100
AcDbLine
 10
0.0
 20
0.0
 30
0.0
 11
0.0
 21
2.5
 31
0.0
  0
LINE
  5
97
330
93
100
AcDbEntity
  8
FORMAT
 62
     0
100
AcDbLine
 10
0.0
 20
0.0
 30
0.0
 11
-2.5
 21
0.0
 31
0.0
  0
LINE
  5
98
330
93
100
AcDbEntity
  8
FORMAT
 62
     0
100
AcDbLine
 10
0.0
 20
0.0
 30
0.0
 11
0.0
 21
-2.5
 31
0.0
  0
LINE
  5
99
330
93
100
AcDbEntity
  8
FORMAT
 62
     0
100
AcDbLine
 10
0.0
 20
0.0
 30
0.0
 11
2.5
 21
0.0
 31
0.0
  0
LINE
  5
9A
330
93
100
AcDbEntity
  8
FORMAT
 62
     0
100
AcDbLine
 10
0.0
 20
5.0
 30
0.0
 11
0.0
 21
602.5
 31
0.0
  0
LINE
  5
9B
330
93
100
AcDbEntity
  8
FORMAT
 62
     0
100
AcDbLine
 10
-5.0
 20
0.0
 30
0.0
 11
-602.5
 21
0.0
 31
0.0
  0
LINE
  5
9C
330
93
100
AcDbEntity
  8
FORMAT
 62
     0
100
AcDbLine
 10
0.0
 20
-5.0
 30
0.0
 11
0.0
 21
-602.5
 31
0.0
  0
LINE
  5
9D
330
93
100
AcDbEntity
  8
FORMAT
 62
     0
100
AcDbLine
 10
5.0
 20
0.0
 30
0.0
 11
602.5
 21
0.0
 31
0.0
  0
ENDBLK
  5
95
330
93
100
AcDbEntity
  8
0
100
AcDbBlockEnd
  0
BLOCK
  5
EA
330
E9
100
AcDbEntity
  8
0
100
AcDbBlockBegin
  2
SW_CENTERMARKSYMBOL_1
 70
     0
 10
0.0
 20
0.0
 30
0.0
  3
SW_CENTERMARKSYMBOL_1
  1

  0
LINE
  5
EC
330
E9
100
AcDbEntity
  8
FORMAT
 62
     0
100
AcDbLine
 10
0.0
 20
0.0
 30
0.0
 11
0.0
 21
2.5
 31
0.0
  0
LINE
  5
ED
330
E9
100
AcDbEntity
  8
FORMAT
 62
     0
100
AcDbLine
 10
0.0
 20
0.0
 30
0.0
 11
-2.5
 21
0.0
 31
0.0
  0
LINE
  5
EE
330
E9
100
AcDbEntity
  8
FORMAT
 62
     0
100
AcDbLine
 10
0.0
 20
0.0
 30
0.0
 11
0.0
 21
-2.5
 31
0.0
  0
LINE
  5
EF
330
E9
100
AcDbEntity
  8
FORMAT
 62
     0
100
AcDbLine
 10
0.0
 20
0.0
 30
0.0
 11
2.5
 21
0.0
 31
0.0
  0
LINE
  5
F0
330
E9
100
AcDbEntity
  8
FORMAT
 62
     0
100
AcDbLine
 10
0.0
 20
5.0
 30
0.0
 11
0.0
 21
9.5
 31
0.0
  0
LINE
  5
F1
330
E9
100
AcDbEntity
  8
FORMAT
 62
     0
100
AcDbLine
 10
-5.0
 20
0.0
 30
0.0
 11
-9.5
 21
0.0
 31
0.0
  0
LINE
  5
F2
330
E9
100
AcDbEntity
  8
FORMAT
 62
     0
100
AcDbLine
 10
0.0
 20
-5.0
 30
0.0
 11
0.0
 21
-9.5
 31
0.0
  0
LINE
  5
F3
330
E9
100
AcDbEntity
  8
FORMAT
 62
     0
100
AcDbLine
 10
5.0
 20
0.0
 30
0.0
 11
9.5
 21
0.0
 31
0.0
  0
ENDBLK
  5
EB
330
E9
100
AcDbEntity
  8
0
100
AcDbBlockEnd
  0
BLOCK
  5
F6
330
F5
100
AcDbEntity
  8
0
100
AcDbBlockBegin
  2
SW_CENTERMARKSYMBOL_2
 70
     0
 10
0.0
 20
0.0
 30
0.0
  3
SW_CENTERMARKSYMBOL_2
  1

  0
LINE
  5
F8
330
F5
100
AcDbEntity
  8
FORMAT
 62
     0
100
AcDbLine
 10
0.0
 20
0.0
 30
0.0
 11
0.0
 21
2.5
 31
0.0
  0
LINE
  5
F9
330
F5
100
AcDbEntity
  8
FORMAT
 62
     0
100
AcDbLine
 10
0.0
 20
0.0
 30
0.0
 11
-2.5
 21
0.0
 31
0.0
  0
LINE
  5
FA
330
F5
100
AcDbEntity
  8
FORMAT
 62
     0
100
AcDbLine
 10
0.0
 20
0.0
 30
0.0
 11
0.0
 21
-2.5
 31
0.0
  0
LINE
  5
FB
330
F5
100
AcDbEntity
  8
FORMAT
 62
     0
100
AcDbLine
 10
0.0
 20
0.0
 30
0.0
 11
2.5
 21
0.0
 31
0.0
  0
LINE
  5
FC
330
F5
100
AcDbEntity
  8
FORMAT
 62
     0
100
AcDbLine
 10
0.0
 20
5.0
 30
0.0
 11
0.0
 21
9.5
 31
0.0
  0
LINE
  5
FD
330
F5
100
AcDbEntity
  8
FORMAT
 62
     0
100
AcDbLine
 10
-5.0
 20
0.0
 30
0.0
 11
-9.5
 21
0.0
 31
0.0
  0
LINE
  5
FE
330
F5
100
AcDbEntity
  8
FORMAT
 62
     0
100
AcDbLine
 10
0.0
 20
-5.0
 30
0.0
 11
0.0
 21
-9.5
 31
0.0
  0
LINE
  5
FF
330
F5
100
AcDbEntity
  8
FORMAT
 62
     0
100
AcDbLine
 10
5.0
 20
0.0
 30
0.0
 11
9.5
 21
0.0
 31
0.0
  0
ENDBLK
  5
F7
330
F5
100
AcDbEntity
  8
0
100
AcDbBlockEnd
  0
ENDSEC
  0
SECTION
  2
ENTITIES
  0
LINE
  5
83
330
1F
100
AcDbEntity
  8
0
  6
Continuous
 62
     7
370
    25
100
AcDbLine
 10
94.9579443161
 20
794.6964985368
 30
0.0
 11
94.9579443161
 21
799.1143475765
 31
0.0
  0
LINE
  5
84
330
1F
100
AcDbEntity
  8
0
  6
Continuous
 62
     7
370
    25
100
AcDbLine
 10
80.9579443161
 20
799.1143475765
 30
0.0
 11
80.9579443161
 21
793.9892219628
 31
0.0
  0
LINE
  5
85
330
1F
100
AcDbEntity
  8
0
  6
Continuous
 62
     7
370
    25
100
AcDbLine
 10
164.9579443161
 20
793.9882540451
 30
0.0
 11
164.9579443161
 21
799.1143475765
 31
0.0
  0
LINE
  5
86
330
1F
100
AcDbEntity
  8
0
  6
Continuous
 62
     7
370
    25
100
AcDbLine
 10
150.9579443161
 20
799.1143475765
 30
0.0
 11
150.9579443161
 21
794.6944138773
 31
0.0
  0
CIRCLE
  5
87
330
1F
100
AcDbEntity
  8
0
  6
Continuous
 62
     7
370
    25
100
AcDbCircle
 10
122.9579443161
 20
109.1143475765
 30
0.0
 40
686.0
  0
ARC
  5
88
330
1F
100
AcDbEntity
  8
0
  6
Continuous
 62
     7
370
    25
100
AcDbCircle
 10
122.9579443161
 20
109.1143475765
 30
0.0
 40
687.9999999999989
100
AcDbArc
 50
93.4998835924
 51
180.0
  0
ARC
  5
89
330
1F
100
AcDbEntity
  8
0
  6
Continuous
 62
     7
370
    25
100
AcDbCircle
 10
122.9579443161
 20
109.1143475765
 30
0.0
 40
687.9999999999986
100
AcDbArc
 50
87.6675508445
 51
92.3324491555
  0
ARC
  5
8A
330
1F
100
AcDbEntity
  8
0
  6
Continuous
 62
     7
370
    25
100
AcDbCircle
 10
122.9579443161
 20
109.1143475765
 30
0.0
 40
687.9999999999989
100
AcDbArc
 50
180.0
 51
86.5001164076
  0
SPLINE
  5
8B
330
1F
100
AcDbEntity
  8
0
  6
Continuous
 62
     7
370
    25
100
AcDbSpline
210
0.0
220
0.0
230
1.0
 70
     8
 71
     3
 72
    15
 73
    11
 74
     0
 42
0.00000001
 43
0.00000001
 40
0.0
 40
0.0
 40
0.0
 40
0.0
 40
0.1322578458279649
 40
0.2645120593980782
 40
0.3968518994136559
 40
0.5292614684562061
 40
0.6616425777893336
 40
0.7938778089555022
 40
0.9258995356641253
 40
1.0
 40
1.0
 40
1.0
 40
1.0
 10
93.77777096593873
 20
794.599358965976
 30
0.0
 10
93.27560778892472
 20
794.5698442217322
 30
0.0
 10
92.27129522603423
 20
794.5108155438211
 30
0.0
 10
90.1025931405461
 20
794.3967036409357
 30
0.0
 10
87.73787615994539
 20
794.2749645471928
 30
0.0
 10
85.38700623877948
 20
794.1561496719625
 30
0.0
 10
83.3199501793388
 20
794.0551526168458
 30
0.0
 10
81.81355320183108
 20
793.9896816249627
 30
0.0
 10
81.00330514787618
 20
793.9647808543452
 30
0.0
 10
81.04164379340844
 20
793.9827588969308
 30
0.0
 10
81.05542645029537
 20
793.9892219628273
 30
0.0
  0
SPLINE
  5
8C
330
1F
100
AcDbEntity
  8
0
  6
Continuous
 62
     7
370
    25
100
AcDbSpline
210
0.0
220
0.0
230
1.0
 70
     8
 71
     3
 72
    10
 73
     6
 74
     0
 42
0.00000001
 43
0.00000001
 40
0.0
 40
0.0
 40
0.0
 40
0.0
 40
0.0711235501817129
 40
0.6427429495309538
 40
1.0
 40
1.0
 40
1.0
 40
1.0
 10
94.91490122672472
 20
794.6964985367958
 30
0.0
 10
94.92877120974362
 20
794.6958447435997
 30
0.0
 10
95.05411413445333
 20
794.6899364197585
 30
0.0
 10
94.63928819828197
 20
794.6553264420778
 30
0.0
 10
94.0170797976319
 20
794.6149053889794
 30
0.0
 10
93.77777096593873
 20
794.5993589659759
 30
0.0
  0
SPLINE
  5
8D
330
1F
100
AcDbEntity
  8
0
  6
Continuous
 62
     7
370
    25
100
AcDbSpline
210
0.0
220
0.0
230
1.0
 70
     8
 71
     3
 72
    14
 73
    10
 74
     0
 42
0.00000001
 43
0.00000001
 40
0.0
 40
0.0
 40
0.0
 40
0.0
 40
0.1565689973364379
 40
0.3131334624414301
 40
0.469790184986849
 40
0.6264409828941868
 40
0.7829857275261537
 40
0.9393837576619294
 40
0.9999999999999999
 40
0.9999999999999999
 40
0.9999999999999999
 40
0.9999999999999999
 10
161.8319305672735
 20
794.0928981680246
 30
0.0
 10
161.1327958463268
 20
794.1271855922656
 30
0.0
 10
159.7345466424142
 20
794.195759448223
 30
0.0
 10
157.318917179771
 20
794.3189949980764
 30
0.0
 10
155.0097936010703
 20
794.4385381063533
 30
0.0
 10
153.0115993304211
 20
794.5460844418798
 30
0.0
 10
151.6246408810485
 20
794.6299108585866
 30
0.0
 10
150.9424519242814
 20
794.6812210247109
 30
0.0
 10
151.0282793688902
 20
794.6915334261241
 30
0.0
 10
151.0522526178492
 20
794.6944138773315
 30
0.0
  0
SPLINE
  5
8E
330
1F
100
AcDbEntity
  8
0
  6
Continuous
 62
     7
370
    25
100
AcDbSpline
210
0.0
220
0.0
230
1.0
 70
     8
 71
     3
 72
    11
 73
     7
 74
     0
 42
0.00000001
 43
0.00000001
 40
0.0
 40
0.0
 40
0.0
 40
0.0
 40
0.1025134996326071
 40
0.4445543679332539
 40
0.7864664899031687
 40
1.0
 40
1.0
 40
1.0
 40
1.0
 10
164.8747032277084
 20
793.9882540450604
 30
0.0
 10
164.8986041865422
 20
793.9838191313764
 30
0.0
 10
165.0022517615972
 20
793.9645869301862
 30
0.0
 10
164.3774187889344
 20
793.980189244678
 30
0.0
 10
163.2422436327668
 20
794.0258670232682
 30
0.0
 10
162.2235525017292
 20
794.0742846649518
 30
0.0
 10
161.8319305672735
 20
794.0928981680245
 30
0.0
  0
CIRCLE
  5
8F
330
1F
100
AcDbEntity
  8
0
  6
Continuous
 62
     7
370
    25
100
AcDbCircle
 10
122.9579443161
 20
109.1143475765
 30
0.0
 40
600.0
  0
LINE
  5
90
330
1F
100
AcDbEntity
  8
0
  6
Continuous
 62
     7
370
    25
100
AcDbLine
 10
87.9579443161
 20
799.1143475765
 30
0.0
 11
80.9579443161
 21
799.1143475765
 31
0.0
  0
LINE
  5
91
330
1F
100
AcDbEntity
  8
0
  6
Continuous
 62
     7
370
    25
100
AcDbLine
 10
94.9579443161
 20
799.1143475765
 30
0.0
 11
87.9579443161
 21
799.1143475765
 31
0.0
  0
LINE
  5
92
330
1F
100
AcDbEntity
  8
0
  6
Continuous
 62
     7
370
    25
100
AcDbLine
 10
164.9579443161
 20
799.1143475765
 30
0.0
 11
150.9579443161
 21
799.1143475765
 31
0.0
  0
INSERT
  5
9E
330
1F
100
AcDbEntity
  8
FORMAT
 62
     7
100
AcDbBlockReference
  2
SW_CENTERMARKSYMBOL_0
 10
122.9579443161
 20
109.1143475765
 30
0.0
  0
ARC
  5
9F
330
1F
100
AcDbEntity
  8
0
  6
Continuous
 62
     7
370
    25
100
AcDbCircle
 10
1875.0559663493
 20
-22080.4481524238
 30
0.0
 40
22877.56250000027
100
AcDbArc
 50
90.0
 51
90.7100305922
  0
LINE
  5
A0
330
1F
100
AcDbEntity
  8
0
  6
Continuous
 62
     7
370
    25
100
AcDbLine
 10
1577.5559663493
 20
795.1799196406
 30
0.0
 11
1572.5559663493
 21
795.1143475765
 31
0.0
  0
ARC
  5
A1
330
1F
100
AcDbEntity
  8
0
  6
Continuous
 62
     7
370
    25
100
AcDbCircle
 10
1875.0559663493
 20
22298.6768475768
 30
0.0
 40
22877.56250000027
100
AcDbArc
 50
269.2423808968
 51
270.0
  0
LINE
  5
A2
330
1F
100
AcDbEntity
  8
0
  6
Continuous
 62
     7
370
    25
100
AcDbLine
 10
1875.0559663493
 20
-578.8856524235
 30
0.0
 11
1920.0559663493
 21
-578.8856524235
 31
0.0
  0
LINE
  5
A3
330
1F
100
AcDbEntity
  8
0
  6
Continuous
 62
     7
370
    25
100
AcDbLine
 10
1920.0559663493
 20
797.1143475765
 30
0.0
 11
1875.0559663493
 21
797.1143475765
 31
0.0
  0
LINE
  5
A4
330
1F
100
AcDbEntity
  8
0
  6
Continuous
 62
     7
370
    25
100
AcDbLine
 10
2222.5559663493
 20
795.1143475765
 30
0.0
 11
2217.5559663493
 21
795.1799196406
 31
0.0
  0
ARC
  5
A5
330
1F
100
AcDbEntity
  8
0
  6
Continuous
 62
     7
370
    25
100
AcDbCircle
 10
1920.0559663493
 20
-22080.4481524238
 30
0.0
 40
22877.56250000027
100
AcDbArc
 50
89.2899694078
 51
90.0
  0
ARC
  5
A6
330
1F
100
AcDbEntity
  8
0
  6
Continuous
 62
     7
370
    25
100
AcDbCircle
 10
1920.0559663493
 20
22298.6768475768
 30
0.0
 40
22877.56250000027
100
AcDbArc
 50
270.0
 51
270.7576191032
  0
LINE
  5
A7
330
1F
100
AcDbEntity
  8
0
  6
Continuous
 62
     7
370
    25
100
AcDbLine
 10
1591.5559663493
 20
794.4636655891
 30
0.0
 11
1591.5559663493
 21
799.1143475765
 31
0.0
  0
LINE
  5
A8
330
1F
100
AcDbEntity
  8
0
  6
Continuous
 62
     7
370
    25
100
AcDbLine
 10
1577.5559663493
 20
799.1143475765
 30
0.0
 11
1577.5559663493
 21
794.2864397199
 31
0.0
  0
LINE
  5
A9
330
1F
100
AcDbEntity
  8
0
  6
Continuous
 62
     7
370
    25
100
AcDbLine
 10
2217.5559663493
 20
794.2864316903
 30
0.0
 11
2217.5559663493
 21
799.1143475765
 31
0.0
  0
LINE
  5
AA
330
1F
100
AcDbEntity
  8
0
  6
Continuous
 62
     7
370
    25
100
AcDbLine
 10
2203.5559663493
 20
799.1143475765
 30
0.0
 11
2203.5559663493
 21
794.4627192687
 31
0.0
  0
LINE
  5
AB
330
1F
100
AcDbEntity
  8
0
  6
Continuous
 62
     7
370
    25
100
AcDbLine
 10
1572.5559663493
 20
109.1143475765
 30
0.0
 11
1572.5559663493
 21
795.1143475765
 31
0.0
  0
LINE
  5
AC
330
1F
100
AcDbEntity
  8
0
  6
Continuous
 62
     7
370
    25
100
AcDbLine
 10
1572.5559663493
 20
-576.8856524235
 30
0.0
 11
1572.5559663493
 21
109.1143475765
 31
0.0
  0
SPLINE
  5
AD
330
1F
100
AcDbEntity
  8
0
  6
Continuous
 62
     7
370
    25
100
AcDbSpline
210
0.0
220
0.0
230
1.0
 70
     8
 71
     3
 72
    18
 73
    14
 74
     0
 42
0.00000001
 43
0.00000001
 40
0.0
 40
0.0
 40
0.0
 40
0.0
 40
0.0092374302435173
 40
0.1167473613260697
 40
0.2243724789858843
 40
0.3320052780518877
 40
0.4395114165334469
 40
0.5468174899644335
 40
0.6539680013014689
 40
0.7610988610775707
 40
0.8683470077288199
 40
0.9757689360240792
 40
1.0
 40
1.0
 40
1.0
 40
1.0
 10
1591.524910369072
 20
794.4636655890641
 30
0.0
 10
1591.535078236091
 20
794.4604886184576
 30
0.0
 10
1591.663584932603
 20
794.4203364413324
 30
0.0
 10
1591.163117299421
 20
794.3247260246515
 30
0.0
 10
1590.006058346054
 20
794.1947331979833
 30
0.0
 10
1588.149407393308
 20
794.0799331007196
 30
0.0
 10
1585.909858683657
 20
794.0002241678098
 30
0.0
 10
1583.512787635095
 20
793.9664933588515
 30
0.0
 10
1581.24213083696
 20
793.9827653419991
 30
0.0
 10
1579.327258322545
 20
794.0446617590524
 30
0.0
 10
1578.06459209084
 20
794.1414088011932
 30
0.0
 10
1577.488972965737
 20
794.2282249626154
 30
0.0
 10
1577.604114557066
 20
794.2773906513701
 30
0.0
 10
1577.625306656218
 20
794.286439719903
 30
0.0
  0
LINE
  5
AE
330
1F
100
AcDbEntity
  8
0
  6
Continuous
 62
     7
370
    25
100
AcDbLine
 10
2222.5559663493
 20
109.1143475765
 30
0.0
 11
2222.5559663493
 21
795.1143475765
 31
0.0
  0
LINE
  5
AF
330
1F
100
AcDbEntity
  8
0
  6
Continuous
 62
     7
370
    25
100
AcDbLine
 10
2222.5559663493
 20
-576.8856524235
 30
0.0
 11
2222.5559663493
 21
109.1143475765
 31
0.0
  0
SPLINE
  5
B0
330
1F
100
AcDbEntity
  8
0
  6
Continuous
 62
     7
370
    25
100
AcDbSpline
210
0.0
220
0.0
230
1.0
 70
     8
 71
     3
 72
    18
 73
    14
 74
     0
 42
0.00000001
 43
0.00000001
 40
0.0
 40
0.0
 40
0.0
 40
0.0
 40
0.0098159638763952
 40
0.117410925656888
 40
0.2249827613040524
 40
0.3324360575139841
 40
0.4397158617012795
 40
0.5468600891306391
 40
0.6539960538030007
 40
0.7612670403564573
 40
0.8687385515523249
 40
0.9763575027358711
 40
1.0
 40
1.0
 40
1.0
 40
1.0
 10
2217.523108955646
 20
794.2864316903333
 30
0.0
 10
2217.533849528767
 20
794.2827802645894
 30
0.0
 10
2217.662319911107
 20
794.2391047496877
 30
0.0
 10
2217.158559190986
 20
794.1559903290272
 30
0.0
 10
2215.996213335751
 20
794.055548327551
 30
0.0
 10
2214.137785438674
 20
793.9882606885731
 30
0.0
 10
2211.899631415952
 20
793.9658071917735
 30
0.0
 10
2209.505567929805
 20
793.9932145735451
 30
0.0
 10
2207.237001112936
 20
794.0673157640471
 30
0.0
 10
2205.322465343927
 20
794.1780220616744
 30
0.0
 10
2204.061129254932
 20
794.3070230318655
 30
0.0
 10
2203.487068913176
 20
794.408371539215
 30
0.0
 10
2203.603250487923
 20
794.4544243473715
 30
0.0
 10
2203.624176834505
 20
794.4627192687191
 30
0.0
  0
LINE
  5
B1
330
1F
100
AcDbEntity
  8
0
  6
Continuous
 62
     7
370
    25
100
AcDbLine
 10
1591.5559663493
 20
799.1143475765
 30
0.0
 11
1577.5559663493
 21
799.1143475765
 31
0.0
  0
LINE
  5
B2
330
1F
100
AcDbEntity
  8
0
  6
Continuous
 62
     7
370
    25
100
AcDbLine
 10
2217.5559663493
 20
799.1143475765
 30
0.0
 11
2203.5559663493
 21
799.1143475765
 31
0.0
  0
LINE
  5
B3
330
1F
100
AcDbEntity
  8
0
  6
Continuous
 62
     1
370
    25
100
AcDbLine
 10
1875.0559663493
 20
109.1143475765
 30
0.0
 11
1875.0559663493
 21
797.1143475765
 31
0.0
  0
LINE
  5
B4
330
1F
100
AcDbEntity
  8
0
  6
Continuous
 62
     1
370
    25
100
AcDbLine
 10
1875.0559663493
 20
-578.8856524235
 30
0.0
 11
1875.0559663493
 21
109.1143475765
 31
0.0
  0
LINE
  5
B5
330
1F
100
AcDbEntity
  8
0
  6
Continuous
 62
     1
370
    25
100
AcDbLine
 10
1920.0559663493
 20
109.1143475765
 30
0.0
 11
1920.0559663493
 21
797.1143475765
 31
0.0
  0
LINE
  5
B6
330
1F
100
AcDbEntity
  8
0
  6
Continuous
 62
     1
370
    25
100
AcDbLine
 10
1920.0559663493
 20
-578.8856524235
 30
0.0
 11
1920.0559663493
 21
109.1143475765
 31
0.0
  0
ARC
  5
B7
330
1F
100
AcDbEntity
  8
0
  6
Continuous
 62
     7
370
    25
100
AcDbCircle
 10
22312.5204443164
 20
1621.5865595249
 30
0.0
 40
22877.56250000027
100
AcDbArc
 50
180.0
 51
180.7576191032
  0
ARC
  5
B8
330
1F
100
AcDbEntity
  8
0
  6
Continuous
 62
     7
370
    25
100
AcDbCircle
 10
-22066.6045556841
 20
1621.5865595249
 30
0.0
 40
22877.56250000027
100
AcDbArc
 50
359.2423808968
 51
0.0
  0
LINE
  5
B9
330
1F
100
AcDbEntity
  8
0
  6
Continuous
 62
     7
370
    25
100
AcDbLine
 10
810.9579443161
 20
1621.5865595249
 30
0.0
 11
810.9579443161
 21
1666.5865595249
 31
0.0
  0
LINE
  5
BA
330
1F
100
AcDbEntity
  8
0
  6
Continuous
 62
     7
370
    25
100
AcDbLine
 10
-565.0420556839
 20
1666.5865595249
 30
0.0
 11
-565.0420556839
 21
1621.5865595249
 31
0.0
  0
ARC
  5
BB
330
1F
100
AcDbEntity
  8
0
  6
Continuous
 62
     7
370
    25
100
AcDbCircle
 10
22312.5204443164
 20
1666.5865595249
 30
0.0
 40
22877.56250000027
100
AcDbArc
 50
179.2423808968
 51
180.0
  0
ARC
  5
BC
330
1F
100
AcDbEntity
  8
0
  6
Continuous
 62
     7
370
    25
100
AcDbCircle
 10
-22066.6045556841
 20
1666.5865595249
 30
0.0
 40
22877.56250000027
100
AcDbArc
 50
0.0
 51
0.7576191032
  0
LINE
  5
BD
330
1F
100
AcDbEntity
  8
0
  6
Continuous
 62
     7
370
    25
100
AcDbLine
 10
808.9579443161
 20
1319.0865595249
 30
0.0
 11
-563.0420556839
 21
1319.0865595249
 31
0.0
  0
LINE
  5
BE
330
1F
100
AcDbEntity
  8
0
  6
Continuous
 62
     7
370
    25
100
AcDbLine
 10
808.9579443161
 20
1969.0865595249
 30
0.0
 11
-563.0420556839
 21
1969.0865595249
 31
0.0
  0
LINE
  5
BF
330
1F
100
AcDbEntity
  8
0
  6
Continuous
 62
     1
370
    25
100
AcDbLine
 10
810.9579443161
 20
1621.5865595249
 30
0.0
 11
-565.0420556839
 21
1621.5865595249
 31
0.0
  0
LINE
  5
C0
330
1F
100
AcDbEntity
  8
0
  6
Continuous
 62
     1
370
    25
100
AcDbLine
 10
810.9579443161
 20
1666.5865595249
 30
0.0
 11
-565.0420556839
 21
1666.5865595249
 31
0.0
  0
ARC
  5
C1
330
1F
100
AcDbEntity
  8
0
  6
Continuous
 62
     7
370
    25
100
AcDbCircle
 10
-1703.4810813495
 20
22298.6768475768
 30
0.0
 40
22877.56250000027
100
AcDbArc
 50
270.0
 51
270.7576191032
  0
LINE
  5
C2
330
1F
100
AcDbEntity
  8
0
  6
Continuous
 62
     7
370
    25
100
AcDbLine
 10
-1400.9810813495
 20
795.1143475765
 30
0.0
 11
-1405.9810813495
 21
795.1799196406
 31
0.0
  0
ARC
  5
C3
330
1F
100
AcDbEntity
  8
0
  6
Continuous
 62
     7
370
    25
100
AcDbCircle
 10
-1703.4810813495
 20
-22080.4481524238
 30
0.0
 40
22877.56250000027
100
AcDbArc
 50
89.2899694078
 51
90.0
  0
LINE
  5
C4
330
1F
100
AcDbEntity
  8
0
  6
Continuous
 62
     7
370
    25
100
AcDbLine
 10
-1703.4810813495
 20
797.1143475765
 30
0.0
 11
-1748.4810813495
 21
797.1143475765
 31
0.0
  0
LINE
  5
C5
330
1F
100
AcDbEntity
  8
0
  6
Continuous
 62
     7
370
    25
100
AcDbLine
 10
-1748.4810813495
 20
-578.8856524235
 30
0.0
 11
-1703.4810813495
 21
-578.8856524235
 31
0.0
  0
ARC
  5
C6
330
1F
100
AcDbEntity
  8
0
  6
Continuous
 62
     7
370
    25
100
AcDbCircle
 10
-1748.4810813495
 20
22298.6768475768
 30
0.0
 40
22877.56250000027
100
AcDbArc
 50
269.2423808968
 51
270.0
  0
ARC
  5
C7
330
1F
100
AcDbEntity
  8
0
  6
Continuous
 62
     7
370
    25
100
AcDbCircle
 10
-1748.4810813495
 20
-22080.4481524238
 30
0.0
 40
22877.56250000027
100
AcDbArc
 50
90.0
 51
90.7100305922
  0
LINE
  5
C8
330
1F
100
AcDbEntity
  8
0
  6
Continuous
 62
     7
370
    25
100
AcDbLine
 10
-2045.9810813495
 20
795.1799196406
 30
0.0
 11
-2050.9810813495
 21
795.1143475765
 31
0.0
  0
LINE
  5
C9
330
1F
100
AcDbEntity
  8
0
  6
Continuous
 62
     7
370
    25
100
AcDbLine
 10
-1405.9810813495
 20
794.2867669446
 30
0.0
 11
-1405.9810813495
 21
799.1143475765
 31
0.0
  0
LINE
  5
CA
330
1F
100
AcDbEntity
  8
0
  6
Continuous
 62
     7
370
    25
100
AcDbLine
 10
-1419.9810813495
 20
799.1143475765
 30
0.0
 11
-1419.9810813495
 21
794.4631680249
 31
0.0
  0
LINE
  5
CB
330
1F
100
AcDbEntity
  8
0
  6
Continuous
 62
     7
370
    25
100
AcDbLine
 10
-2031.9810813495
 20
794.4643211563
 30
0.0
 11
-2031.9810813495
 21
799.1143475765
 31
0.0
  0
LINE
  5
CC
330
1F
100
AcDbEntity
  8
0
  6
Continuous
 62
     7
370
    25
100
AcDbLine
 10
-2045.9810813495
 20
799.1143475765
 30
0.0
 11
-2045.9810813495
 21
794.2871035235
 31
0.0
  0
LINE
  5
CD
330
1F
100
AcDbEntity
  8
0
  6
Continuous
 62
     7
370
    25
100
AcDbLine
 10
-1400.9810813495
 20
795.1143475765
 30
0.0
 11
-1400.9810813495
 21
-576.8856524235
 31
0.0
  0
SPLINE
  5
CE
330
1F
100
AcDbEntity
  8
0
  6
Continuous
 62
     7
370
    25
100
AcDbSpline
210
0.0
220
0.0
230
1.0
 70
     8
 71
     3
 72
     9
 73
     5
 74
     0
 42
0.00000001
 43
0.00000001
 40
0.0
 40
0.0
 40
0.0
 40
0.0
 40
0.5752393859597164
 40
1.0
 40
1.0
 40
1.0
 40
1.0
 10
-1418.80909073257
 20
794.2409919991287
 30
0.0
 10
-1419.201206923011
 20
794.2851330288199
 30
0.0
 10
-1419.882864333841
 20
794.3618680903761
 30
0.0
 10
-1419.897835598955
 20
794.4329677077769
 30
0.0
 10
-1419.904194802717
 20
794.4631680249219
 30
0.0
  0
SPLINE
  5
CF
330
1F
100
AcDbEntity
  8
0
  6
Continuous
 62
     7
370
    25
100
AcDbSpline
210
0.0
220
0.0
230
1.0
 70
     8
 71
     3
 72
    15
 73
    11
 74
     0
 42
0.00000001
 43
0.00000001
 40
0.0
 40
0.0
 40
0.0
 40
0.0
 40
0.1257815976884313
 40
0.2580450043429943
 40
0.3901780900203323
 40
0.5221015143160646
 40
0.6538438708822926
 40
0.7855499629743414
 40
0.9174006143858299
 40
1.0
 40
1.0
 40
1.0
 40
1.0
 10
-1405.999574845796
 20
794.2867669445645
 30
0.0
 10
-1406.062017249668
 20
794.2485972619601
 30
0.0
 10
-1406.190119855093
 20
794.1702909270552
 30
0.0
 10
-1407.35060927574
 20
794.0680859587325
 30
0.0
 10
-1409.102533654121
 20
793.9952536468519
 30
0.0
 10
-1411.306557999323
 20
793.9660008998826
 30
0.0
 10
-1413.694797691822
 20
793.9863035357891
 30
0.0
 10
-1415.992372163705
 20
794.0544550241123
 30
0.0
 10
-1417.740188055946
 20
794.1470162137721
 30
0.0
 10
-1418.511865093867
 20
794.2148605154715
 30
0.0
 10
-1418.80909073257
 20
794.2409919991287
 30
0.0
  0
LINE
  5
D0
330
1F
100
AcDbEntity
  8
0
  6
Continuous
 62
     7
370
    25
100
AcDbLine
 10
-2050.9810813495
 20
795.1143475765
 30
0.0
 11
-2050.9810813495
 21
-576.8856524235
 31
0.0
  0
SPLINE
  5
D1
330
1F
100
AcDbEntity
  8
0
  6
Continuous
 62
     7
370
    25
100
AcDbSpline
210
0.0
220
0.0
230
1.0
 70
     8
 71
     3
 72
     9
 73
     5
 74
     0
 42
0.00000001
 43
0.00000001
 40
0.0
 40
0.0
 40
0.0
 40
0.0
 40
0.5754320383282328
 40
1.0
 40
1.0
 40
1.0
 40
1.0
 10
-2044.811366979427
 20
794.0928981680245
 30
0.0
 10
-2045.202918193829
 20
794.1270743616993
 30
0.0
 10
-2045.88336555915
 20
794.1864665946623
 30
0.0
 10
-2045.89801432987
 20
794.2571104189796
 30
0.0
 10
-2045.904233728594
 20
794.2871035234746
 30
0.0
  0
SPLINE
  5
D2
330
1F
100
AcDbEntity
  8
0
  6
Continuous
 62
     7
370
    25
100
AcDbSpline
210
0.0
220
0.0
230
1.0
 70
     8
 71
     3
 72
    15
 73
    11
 74
     0
 42
0.00000001
 43
0.00000001
 40
0.0
 40
0.0
 40
0.0
 40
0.0
 40
0.1257599412455425
 40
0.2580242970998336
 40
0.3903199952446669
 40
0.5224803742135666
 40
0.654399204834172
 40
0.7861110422997202
 40
0.9177733026025396
 40
1.0
 40
1.0
 40
1.0
 40
1.0
 10
-2031.99917017399
 20
794.464321156304
 30
0.0
 10
-2032.06180656536
 20
794.4245699037363
 30
0.0
 10
-2032.190318957271
 20
794.3430114289071
 30
0.0
 10
-2033.350700447628
 20
794.2113155997295
 30
0.0
 10
-2035.103636829855
 20
794.0938628831666
 30
0.0
 10
-2037.31068993844
 20
794.0084721677738
 30
0.0
 10
-2039.702214858428
 20
793.9680738557017
 30
0.0
 10
-2042.000716730517
 20
793.9779573795004
 30
0.0
 10
-2043.745893708743
 20
794.0261885891537
 30
0.0
 10
-2044.515501675768
 20
794.074373958781
 30
0.0
 10
-2044.811366979427
 20
794.0928981680245
 30
0.0
  0
LINE
  5
D3
330
1F
100
AcDbEntity
  8
0
  6
Continuous
 62
     7
370
    25
100
AcDbLine
 10
-1405.9810813495
 20
799.1143475765
 30
0.0
 11
-1419.9810813495
 21
799.1143475765
 31
0.0
  0
LINE
  5
D4
330
1F
100
AcDbEntity
  8
0
  6
Continuous
 62
     7
370
    25
100
AcDbLine
 10
-2031.9810813495
 20
799.1143475765
 30
0.0
 11
-2045.9810813495
 21
799.1143475765
 31
0.0
  0
LINE
  5
D5
330
1F
100
AcDbEntity
  8
0
  6
Continuous
 62
     1
370
    25
100
AcDbLine
 10
-1703.4810813495
 20
797.1143475765
 30
0.0
 11
-1703.4810813495
 21
-578.8856524235
 31
0.0
  0
LINE
  5
D6
330
1F
100
AcDbEntity
  8
0
  6
Continuous
 62
     1
370
    25
100
AcDbLine
 10
-1748.4810813495
 20
797.1143475765
 30
0.0
 11
-1748.4810813495
 21
-578.8856524235
 31
0.0
  0
ARC
  5
D7
330
1F
100
AcDbEntity
  8
0
  6
Continuous
 62
     7
370
    25
100
AcDbCircle
 10
-22066.6045556841
 20
-1611.9917411117
 30
0.0
 40
22877.56250000027
100
AcDbArc
 50
0.0
 51
0.7576191032
  0
ARC
  5
D8
330
1F
100
AcDbEntity
  8
0
  6
Continuous
 62
     7
370
    25
100
AcDbCircle
 10
22312.5204443164
 20
-1611.9917411117
 30
0.0
 40
22877.56250000027
100
AcDbArc
 50
179.2423808968
 51
180.0
  0
LINE
  5
D9
330
1F
100
AcDbEntity
  8
0
  6
Continuous
 62
     7
370
    25
100
AcDbLine
 10
-565.0420556839
 20
-1611.9917411117
 30
0.0
 11
-565.0420556839
 21
-1656.9917411117
 31
0.0
  0
LINE
  5
DA
330
1F
100
AcDbEntity
  8
0
  6
Continuous
 62
     7
370
    25
100
AcDbLine
 10
810.9579443161
 20
-1656.9917411117
 30
0.0
 11
810.9579443161
 21
-1611.9917411117
 31
0.0
  0
ARC
  5
DB
330
1F
100
AcDbEntity
  8
0
  6
Continuous
 62
     7
370
    25
100
AcDbCircle
 10
-22066.6045556841
 20
-1656.9917411117
 30
0.0
 40
22877.56250000027
100
AcDbArc
 50
359.2423808968
 51
0.0
  0
ARC
  5
DC
330
1F
100
AcDbEntity
  8
0
  6
Continuous
 62
     7
370
    25
100
AcDbCircle
 10
22312.5204443164
 20
-1656.9917411117
 30
0.0
 40
22877.56250000027
100
AcDbArc
 50
180.0
 51
180.7576191032
  0
CIRCLE
  5
DD
330
1F
100
AcDbEntity
  8
0
  6
Continuous
 62
     7
370
    25
100
AcDbCircle
 10
157.9579443161
 20
-1321.4917411117
 30
0.0
 40
7.000000000000227
  0
CIRCLE
  5
DE
330
1F
100
AcDbEntity
  8
0
  6
Continuous
 62
     7
370
    25
100
AcDbCircle
 10
157.9579443161
 20
-1321.4917411117
 30
0.0
 40
5.000000000000227
  0
CIRCLE
  5
DF
330
1F
100
AcDbEntity
  8
0
  6
Continuous
 62
     7
370
    25
100
AcDbCircle
 10
87.9579443161
 20
-1321.4917411117
 30
0.0
 40
4.999999999999773
  0
CIRCLE
  5
E0
330
1F
100
AcDbEntity
  8
0
  6
Continuous
 62
     7
370
    25
100
AcDbCircle
 10
87.9579443161
 20
-1321.4917411117
 30
0.0
 40
6.999999999999773
  0
CIRCLE
  5
E1
330
1F
100
AcDbEntity
  8
0
  6
Continuous
 62
     7
370
    25
100
AcDbCircle
 10
157.9579443161
 20
-1947.4917411117
 30
0.0
 40
7.0
  0
CIRCLE
  5
E2
330
1F
100
AcDbEntity
  8
0
  6
Continuous
 62
     7
370
    25
100
AcDbCircle
 10
157.9579443161
 20
-1947.4917411117
 30
0.0
 40
5.000000000000227
  0
CIRCLE
  5
E3
330
1F
100
AcDbEntity
  8
0
  6
Continuous
 62
     7
370
    25
100
AcDbCircle
 10
87.9579443161
 20
-1947.4917411117
 30
0.0
 40
5.0
  0
CIRCLE
  5
E4
330
1F
100
AcDbEntity
  8
0
  6
Continuous
 62
     7
370
    25
100
AcDbCircle
 10
87.9579443161
 20
-1947.4917411117
 30
0.0
 40
6.999999999999773
  0
LINE
  5
E5
330
1F
100
AcDbEntity
  8
0
  6
Continuous
 62
     7
370
    25
100
AcDbLine
 10
-563.0420556839
 20
-1309.4917411117
 30
0.0
 11
808.9579443161
 21
-1309.4917411117
 31
0.0
  0
LINE
  5
E6
330
1F
100
AcDbEntity
  8
0
  6
Continuous
 62
     7
370
    25
100
AcDbLine
 10
-563.0420556839
 20
-1959.4917411117
 30
0.0
 11
808.9579443161
 21
-1959.4917411117
 31
0.0
  0
LINE
  5
E7
330
1F
100
AcDbEntity
  8
0
  6
Continuous
 62
     1
370
    25
100
AcDbLine
 10
-565.0420556839
 20
-1611.9917411117
 30
0.0
 11
810.9579443161
 21
-1611.9917411117
 31
0.0
  0
LINE
  5
E8
330
1F
100
AcDbEntity
  8
0
  6
Continuous
 62
     1
370
    25
100
AcDbLine
 10
-565.0420556839
 20
-1656.9917411117
 30
0.0
 11
810.9579443161
 21
-1656.9917411117
 31
0.0
  0
INSERT
  5
F4
330
1F
100
AcDbEntity
  8
FORMAT
 62
     7
100
AcDbBlockReference
  2
SW_CENTERMARKSYMBOL_1
 10
122.9579443161
 20
-1496.4917411117
 30
0.0
  0
INSERT
  5
100
330
1F
100
AcDbEntity
  8
FORMAT
 62
     7
100
AcDbBlockReference
  2
SW_CENTERMARKSYMBOL_2
 10
122.9579443161
 20
-1772.4917411117
 30
0.0
  0
SPLINE
  5
101
330
1F
100
AcDbEntity
  8
0
  6
Continuous
 62
     7
370
    25
100
AcDbSpline
210
0.0
220
0.0
230
1.0
 70
     8
 71
     3
 72
    11
 73
     7
 74
     0
 42
0.00000001
 43
0.00000001
 40
0.0
 40
0.0
 40
0.0
 40
0.0
 40
0.1643166691282569
 40
0.4432325411975275
 40
0.7221368791151231
 40
1.0
 40
1.0
 40
1.0
 40
1.0
 10
1629.059710816112
 20
-1080.013364339935
 30
0.0
 10
1617.165096990388
 20
-1086.874765992043
 30
0.0
 10
1585.080221240967
 20
-1105.382909484573
 30
0.0
 10
1532.985421675195
 20
-1135.846055146838
 30
0.0
 10
1472.821836143061
 20
-1171.305140423781
 30
0.0
 10
1432.880657535114
 20
-1195.165155927762
 30
0.0
 10
1412.947415452872
 20
-1207.072853239234
 30
0.0
  0
SPLINE
  5
102
330
1F
100
AcDbEntity
  8
0
  6
Continuous
 62
     7
370
    25
100
AcDbSpline
210
0.0
220
0.0
230
1.0
 70
     8
 71
     3
 72
    12
 73
     8
 74
     0
 42
0.00000001
 43
0.00000001
 40
0.0
 40
0.0
 40
0.0
 40
0.0
 40
0.0485993710563635
 40
0.3275315061652128
 40
0.6064635631157007
 40
0.8853928942831815
 40
0.9999999999999999
 40
0.9999999999999999
 40
0.9999999999999999
 40
0.9999999999999999
 10
2098.850592405157
 20
-2395.21939948504
 30
0.0
 10
2102.403499543375
 20
-2393.252570541029
 30
0.0
 10
2126.348028061986
 20
-2379.997286935529
 30
0.0
 10
2170.540180576506
 20
-2355.187978015699
 30
0.0
 10
2231.404341053146
 20
-2320.757486565392
 30
0.0
 10
2280.209456727775
 20
-2292.896574909316
 30
0.0
 10
2308.675583631362
 20
-2276.426764741183
 30
0.0
 10
2316.965592153106
 20
-2271.630367004751
 30
0.0
  0
LINE
  5
103
330
1F
100
AcDbEntity
  8
0
  6
Continuous
 62
     7
370
    25
100
AcDbLine
 10
1660.8604329372
 20
-1061.6110540935
 30
0.0
 11
1629.0406277838
 21
-1079.9802366096
 31
0.0
  0
LINE
  5
104
330
1F
100
AcDbEntity
  8
0
  6
Continuous
 62
     7
370
    25
100
AcDbLine
 10
2316.9847158374
 20
-2271.6634712454
 30
0.0
 11
2348.8045209908
 21
-2253.2942887294
 31
0.0
  0
SPLINE
  5
105
330
1F
100
AcDbEntity
  8
0
  6
Continuous
 62
     7
370
    25
100
AcDbSpline
210
0.0
220
0.0
230
1.0
 70
     8
 71
     3
 72
    12
 73
     8
 74
     0
 42
0.00000001
 43
0.00000001
 40
0.0
 40
0.0
 40
0.0
 40
0.0
 40
0.048603432989497
 40
0.3275343223117702
 40
0.6064651334771324
 40
0.8853932188720182
 40
1.0
 40
1.0
 40
1.0
 40
1.0
 10
1878.99549468503
 20
-938.0546060568856
 30
0.0
 10
1875.44227468351
 20
-940.0216080963612
 30
0.0
 10
1851.497433061435
 20
-953.2770643544543
 30
0.0
 10
1807.304967978486
 20
-978.0865469137208
 30
0.0
 10
1746.440807777445
 20
-1012.517038873933
 30
0.0
 10
1697.635678469614
 20
-1040.377958210825
 30
0.0
 10
1669.169538033688
 20
-1056.847776242305
 30
0.0
 10
1660.879515969508
 20
-1061.644181823923
 30
0.0
  0
SPLINE
  5
106
330
1F
100
AcDbEntity
  8
0
  6
Continuous
 62
     7
370
    25
100
AcDbSpline
210
0.0
220
0.0
230
1.0
 70
     8
 71
     3
 72
    11
 73
     7
 74
     0
 42
0.00000001
 43
0.00000001
 40
0.0
 40
0.0
 40
0.0
 40
0.0
 40
0.164316626549366
 40
0.443232108451274
 40
0.7221360562096425
 40
1.0
 40
1.0
 40
1.0
 40
1.0
 10
2348.7853973065
 20
-2253.261184488742
 30
0.0
 10
2360.680024691706
 20
-2246.399775020878
 30
0.0
 10
2392.764914005105
 20
-2227.891623720223
 30
0.0
 10
2444.859727128468
 20
-2197.428470238212
 30
0.0
 10
2505.023399774861
 20
-2161.969333364809
 30
0.0
 10
2544.964665252769
 20
-2138.109265860545
 30
0.0
 10
2564.897994229047
 20
-2126.201516587509
 30
0.0
  0
LINE
  5
107
330
1F
100
AcDbEntity
  8
0
  6
Continuous
 62
     7
370
    25
100
AcDbLine
 10
1799.3468892175
 20
-1249.3154750893
 30
0.0
 11
1799.3468892175
 21
-1245.2791139254
 31
0.0
  0
LINE
  5
108
330
1F
100
AcDbEntity
  8
0
  6
Continuous
 62
     7
370
    25
100
AcDbLine
 10
1785.3468892175
 20
-1245.2791139254
 30
0.0
 11
1785.3468892175
 21
-1249.0082429758
 31
0.0
  0
LINE
  5
109
330
1F
100
AcDbEntity
  8
0
  6
Continuous
 62
     7
370
    25
100
AcDbLine
 10
1749.8494145344
 20
-1220.3342329265
 30
0.0
 11
1749.8494145344
 21
-1216.7048300117
 31
0.0
  0
LINE
  5
10A
330
1F
100
AcDbEntity
  8
0
  6
Continuous
 62
     7
370
    25
100
AcDbLine
 10
1735.8494145344
 20
-1216.7048300117
 30
0.0
 11
1735.8494145344
 21
-1220.8434486645
 31
0.0
  0
LINE
  5
10B
330
1F
100
AcDbEntity
  8
0
  6
Continuous
 62
     7
370
    25
100
AcDbLine
 10
2241.9957342402
 20
-993.8812529123
 30
0.0
 11
2241.9957342402
 21
-989.7433749249
 31
0.0
  0
LINE
  5
10C
330
1F
100
AcDbEntity
  8
0
  6
Continuous
 62
     7
370
    25
100
AcDbLine
 10
2227.9957342402
 20
-989.7433749249
 30
0.0
 11
2227.9957342402
 21
-993.3700447605
 31
0.0
  0
LINE
  5
10D
330
1F
100
AcDbEntity
  8
0
  6
Continuous
 62
     7
370
    25
100
AcDbLine
 10
2192.4982595572
 20
-964.8997697572
 30
0.0
 11
2192.4982595572
 21
-961.1690910111
 31
0.0
  0
LINE
  5
10E
330
1F
100
AcDbEntity
  8
0
  6
Continuous
 62
     7
370
    25
100
AcDbLine
 10
2178.4982595572
 20
-961.1690910111
 30
0.0
 11
2178.4982595572
 21
-965.2057997662
 31
0.0
  0
LWPOLYLINE
  5
10F
330
1F
100
AcDbEntity
  8
0
  6
Continuous
 62
     7
370
    25
100
AcDbPolyline
 90
      241
 70
   128
 43
0.0
 10
1274.0376186077
 20
-1519.2755984855
 10
1274.2038417815
 20
-1504.7086180971
 10
1274.7023973819
 20
-1490.3435383808
 10
1275.5329437236
 20
-1476.1902044448
 10
1276.6949115919
 20
-1462.2583162771
 10
1278.1875046318
 20
-1448.5574220979
 10
1280.0096998948
 20
-1435.0969118157
 10
1282.1602485391
 20
-1421.886010592
 10
1284.6376766863
 20
-1408.9337725185
 10
1287.4402864307
 20
-1396.2490744122
 10
1290.5661570036
 20
-1383.8406097316
 10
1294.0131460896
 20
-1371.7168826185
 10
1297.7788912944
 20
-1359.88620207
 10
1301.8608117645
 20
-1348.3566762435
 10
1306.2561099553
 20
-1337.1362069001
 10
1310.9617735491
 20
-1326.2324839891
 10
1315.9745775191
 20
-1315.6529803773
 10
1321.2910863399
 20
-1305.4049467283
 10
1326.9076563419
 20
-1295.4954065323
 10
1332.8204382085
 20
-1285.9311512932
 10
1339.0253796144
 20
-1276.7187358737
 10
1345.5182280027
 20
-1267.8644740034
 10
1352.2945334995
 20
-1259.3744339508
 10
1359.3496519635
 20
-1251.2544343655
 10
1366.6787481688
 20
-1243.5100402895
 10
1374.276799119
 20
-1236.1465593437
 10
1382.1385974896
 20
-1229.1690380901
 10
1390.2587551966
 20
-1222.5822585733
 10
1398.6317070896
 20
-1216.3907350428
 10
1407.2517147655
 20
-1210.5987108598
 10
1416.1128705017
 20
-1205.2101555881
 10
1425.2091013047
 20
-1200.2287622745
 10
1434.5341730722
 20
-1195.6579449171
 10
1444.0816948659
 20
-1191.5008361258
 10
1453.8451232912
 20
-1187.7602849752
 10
1463.817766982
 20
-1184.4388550524
 10
1473.9927911864
 20
-1181.5388226995
 10
1484.3632224511
 20
-1179.0621754537
 10
1494.9219534005
 20
-1177.0106106855
 10
1505.6617476079
 20
-1175.3855344348
 10
1516.5752445547
 20
-1174.1880604477
 10
1527.6549646754
 20
-1173.419009413
 10
1538.8933144831
 20
-1173.0789084
 10
1550.2825917743
 20
-1173.1679904968
 10
1561.8149909072
 20
-1173.6861946511
 10
1573.4826081516
 20
-1174.6331657116
 10
1585.2774471053
 20
-1176.0082546716
 10
1597.1914241749
 20
-1177.8105191139
 10
1609.2163741158
 20
-1180.0387238565
 10
1621.3440556277
 20
-1182.691341799
 10
1633.5661570036
 20
-1185.7665549697
 10
1645.8743018258
 20
-1189.2622557711
 10
1658.2600547066
 20
-1193.1760484245
 10
1670.7149270696
 20
-1197.5052506118
 10
1683.2303829674
 20
-1202.2468953142
 10
1695.7978449318
 20
-1207.3977328451
 10
1708.4086998521
 20
-1212.954233078
 10
1721.0543048781
 20
-1218.9125878649
 10
1733.725993344
 20
-1225.2687136473
 10
1746.4150807074
 20
-1232.018254254
 10
1759.1128705017
 20
-1239.156583887
 10
1771.810660296
 20
-1246.6788102918
 10
1784.4997476594
 20
-1254.57977811
 10
1797.1714361253
 20
-1262.8540724131
 10
1809.8170411514
 20
-1271.496022413
 10
1822.4278960716
 20
-1280.4997053489
 10
1834.995358036
 20
-1289.8589505462
 10
1847.5108139338
 20
-1299.5673436458
 10
1859.9656862968
 20
-1309.618231
 10
1872.3514391776
 20
-1320.0047242326
 10
1884.6595839998
 20
-1330.71970496
 10
1896.8816853757
 20
-1341.7558296697
 10
1909.0093668876
 20
-1353.105534753
 10
1921.0343168285
 20
-1364.761041689
 10
1932.9482938981
 20
-1376.7143623755
 10
1944.7431328518
 20
-1388.9573046035
 10
1956.4107500962
 20
-1401.481477672
 10
1967.9431492291
 20
-1414.2782981383
 10
1979.3324265203
 20
-1427.3389957009
 10
1990.570776328
 20
-1440.6546192102
 10
2001.6504964487
 20
-1454.2160428028
 10
2012.5639933955
 20
-1468.0139721566
 10
2023.3037876029
 20
-1482.0389508598
 10
2033.8625185523
 20
-1496.2813668927
 10
2044.232949817
 20
-1510.7314592147
 10
2054.4079740214
 20
-1525.3793244544
 10
2064.3806177122
 20
-1540.2149236966
 10
2074.1440461375
 20
-1555.2280893626
 10
2083.6915679312
 20
-1570.4085321786
 10
2093.0166396987
 20
-1585.7458482275
 10
2102.1128705017
 20
-1601.2295260788
 10
2110.9740262379
 20
-1616.8489539932
 10
2119.5940339139
 20
-1632.5934271951
 10
2127.9669858068
 20
-1648.4521552089
 10
2136.0871435138
 20
-1664.4142692547
 10
2143.9489418844
 20
-1680.4688296967
 10
2151.5469928346
 20
-1696.6048335413
 10
2158.8760890399
 20
-1712.8112219773
 10
2165.9312075039
 20
-1729.0768879557
 10
2172.7075130007
 20
-1745.3906838015
 10
2179.200361389
 20
-1761.7414288539
 10
2185.4053027949
 20
-1778.1179171291
 10
2191.3180846615
 20
-1794.5089249999
 10
2196.9346546635
 20
-1810.9032188883
 10
2202.2511634843
 20
-1827.2895629642
 10
2207.2639674543
 20
-1843.6567268458
 10
2211.9696310481
 20
-1859.9934932967
 10
2216.3649292389
 20
-1876.2886659132
 10
2220.446849709
 20
-1892.5310767978
 10
2224.2125949138
 20
-1908.7095942135
 10
2227.6595839998
 20
-1924.8131302126
 10
2230.7854545727
 20
-1940.8306482359
 10
2233.5880643171
 20
-1956.7511706766
 10
2236.0654924643
 20
-1972.5637864039
 10
2238.2160411086
 20
-1988.2576582409
 10
2240.0382363716
 20
-2003.8220303917
 10
2241.5308294115
 20
-2019.2462358131
 10
2242.6927972798
 20
-2034.5197035252
 10
2243.5233436215
 20
-2049.6319658561
 10
2244.0218992219
 20
-2064.5726656161
 10
2244.1881223957
 20
-2079.3315631958
 10
2244.0218992219
 20
-2093.8985435842
 10
2243.5233436215
 20
-2108.2636233005
 10
2242.6927972798
 20
-2122.4169572365
 10
2241.5308294115
 20
-2136.3488454042
 10
2240.0382363716
 20
-2150.0497395834
 10
2238.2160411086
 20
-2163.5102498656
 10
2236.0654924643
 20
-2176.7211510893
 10
2233.5880643171
 20
-2189.6733891628
 10
2230.7854545727
 20
-2202.3580872691
 10
2227.6595839998
 20
-2214.7665519497
 10
2224.2125949138
 20
-2226.8902790628
 10
2220.446849709
 20
-2238.7209596113
 10
2216.3649292389
 20
-2250.2504854378
 10
2211.9696310481
 20
-2261.4709547812
 10
2207.2639674543
 20
-2272.3746776923
 10
2202.2511634843
 20
-2282.954181304
 10
2196.9346546635
 20
-2293.202214953
 10
2191.3180846615
 20
-2303.111755149
 10
2185.4053027949
 20
-2312.6760103881
 10
2179.200361389
 20
-2321.8884258076
 10
2172.7075130007
 20
-2330.7426876779
 10
2165.9312075039
 20
-2339.2327277305
 10
2158.8760890399
 20
-2347.3527273158
 10
2151.5469928346
 20
-2355.0971213918
 10
2143.9489418844
 20
-2362.4606023376
 10
2136.0871435138
 20
-2369.4381235912
 10
2127.9669858068
 20
-2376.024903108
 10
2119.5940339138
 20
-2382.2164266385
 10
2110.9740262379
 20
-2388.0084508215
 10
2102.1128705017
 20
-2393.3970060932
 10
2093.0166396987
 20
-2398.3783994068
 10
2083.6915679312
 20
-2402.9492167642
 10
2074.1440461375
 20
-2407.1063255555
 10
2064.3806177122
 20
-2410.8468767061
 10
2054.4079740214
 20
-2414.1683066289
 10
2044.232949817
 20
-2417.0683389818
 10
2033.8625185523
 20
-2419.5449862276
 10
2023.3037876029
 20
-2421.5965509958
 10
2012.5639933955
 20
-2423.2216272465
 10
2001.6504964487
 20
-2424.4191012337
 10
1990.570776328
 20
-2425.1881522683
 10
1979.3324265203
 20
-2425.5282532813
 10
1967.9431492291
 20
-2425.4391711845
 10
1956.4107500962
 20
-2424.9209670302
 10
1944.7431328518
 20
-2423.9739959697
 10
1932.9482938981
 20
-2422.5989070097
 10
1921.0343168285
 20
-2420.7966425674
 10
1909.0093668876
 20
-2418.5684378248
 10
1896.8816853757
 20
-2415.9158198823
 10
1884.6595839998
 20
-2412.8406067116
 10
1872.3514391776
 20
-2409.3449059102
 10
1859.9656862968
 20
-2405.4311132568
 10
1847.5108139338
 20
-2401.1019110695
 10
1834.995358036
 20
-2396.3602663672
 10
1822.4278960716
 20
-2391.2094288362
 10
1809.8170411513
 20
-2385.6529286033
 10
1797.1714361253
 20
-2379.6945738164
 10
1784.4997476594
 20
-2373.338448034
 10
1771.810660296
 20
-2366.5889074273
 10
1759.1128705017
 20
-2359.4505777943
 10
1746.4150807074
 20
-2351.9283513895
 10
1733.725993344
 20
-2344.0273835713
 10
1721.0543048781
 20
-2335.7530892682
 10
1708.4086998521
 20
-2327.1111392683
 10
1695.7978449318
 20
-2318.1074563324
 10
1683.2303829674
 20
-2308.7482111351
 10
1670.7149270696
 20
-2299.0398180355
 10
1658.2600547066
 20
-2288.9889306813
 10
1645.8743018258
 20
-2278.6024374487
 10
1633.5661570036
 20
-2267.8874567213
 10
1621.3440556277
 20
-2256.8513320116
 10
1609.2163741158
 20
-2245.5016269283
 10
1597.1914241749
 20
-2233.8461199923
 10
1585.2774471053
 20
-2221.8927993058
 10
1573.4826081516
 20
-2209.6498570778
 10
1561.8149909072
 20
-2197.1256840093
 10
1550.2825917743
 20
-2184.328863543
 10
1538.8933144831
 20
-2171.2681659804
 10
1527.6549646754
 20
-2157.9525424711
 10
1516.5752445547
 20
-2144.3911188785
 10
1505.6617476079
 20
-2130.5931895247
 10
1494.9219534005
 20
-2116.5682108215
 10
1484.3632224511
 20
-2102.3257947886
 10
1473.9927911864
 20
-2087.8757024666
 10
1463.817766982
 20
-2073.2278372269
 10
1453.8451232912
 20
-2058.3922379847
 10
1444.0816948659
 20
-2043.3790723187
 10
1434.5341730722
 20
-2028.1986295027
 10
1425.2091013047
 20
-2012.8613134538
 10
1416.1128705017
 20
-1997.3776356025
 10
1407.2517147655
 20
-1981.7582076881
 10
1398.6317070896
 20
-1966.0137344862
 10
1390.2587551966
 20
-1950.1550064724
 10
1382.1385974896
 20
-1934.1928924266
 10
1374.276799119
 20
-1918.1383319846
 10
1366.6787481688
 20
-1902.00232814
 10
1359.3496519635
 20
-1885.795939704
 10
1352.2945334995
 20
-1869.5302737256
 10
1345.5182280027
 20
-1853.2164778798
 10
1339.0253796144
 20
-1836.8657328274
 10
1332.8204382085
 20
-1820.4892445522
 10
1326.9076563419
 20
-1804.0982366814
 10
1321.2910863399
 20
-1787.703942793
 10
1315.9745775191
 20
-1771.3175987171
 10
1310.9617735491
 20
-1754.9504348355
 10
1306.2561099553
 20
-1738.6136683846
 10
1301.8608117645
 20
-1722.3184957681
 10
1297.7788912944
 20
-1706.0760848835
 10
1294.0131460896
 20
-1689.8975674678
 10
1290.5661570036
 20
-1673.7940314687
 10
1287.4402864307
 20
-1657.7765134454
 10
1284.6376766863
 20
-1641.8559910047
 10
1282.1602485391
 20
-1626.0433752774
 10
1280.0096998948
 20
-1610.3495034404
 10
1278.1875046318
 20
-1594.7851312896
 10
1276.6949115919
 20
-1579.3609258682
 10
1275.5329437236
 20
-1564.0874581561
 10
1274.7023973819
 20
-1548.9751958252
 10
1274.2038417815
 20
-1534.0344960652
 10
1274.0376186077
 20
-1519.2755984855
  0
SPLINE
  5
110
330
1F
100
AcDbEntity
  8
0
  6
Continuous
 62
     7
370
    25
100
AcDbSpline
210
0.0
220
0.0
230
1.0
 70
     8
 71
     3
 72
    13
 73
     9
 74
     0
 42
0.00000001
 43
0.00000001
 40
0.0
 40
0.0
 40
0.0
 40
0.0
 40
0.1910333145991261
 40
0.382061382762757
 40
0.5732131298173604
 40
0.7644655935217999
 40
0.9556769500042855
 40
1.0
 40
1.0
 40
1.0
 40
1.0
 10
1744.214233658911
 20
-1224.354962853845
 30
0.0
 10
1743.426294092646
 20
-1224.423829754192
 30
0.0
 10
1741.850436599662
 20
-1224.561561663564
 30
0.0
 10
1739.563028733867
 20
-1224.206647991035
 30
0.0
 10
1737.639850138554
 20
-1223.478241519914
 30
0.0
 10
1736.365999252896
 20
-1222.419278135422
 30
0.0
 10
1735.784309856756
 20
-1221.483038139307
 30
0.0
 10
1735.898691692147
 20
-1220.94785520888
 30
0.0
 10
1735.920216155958
 20
-1220.8471440638
 30
0.0
  0
SPLINE
  5
111
330
1F
100
AcDbEntity
  8
0
  6
Continuous
 62
     7
370
    25
100
AcDbSpline
210
0.0
220
0.0
230
1.0
 70
     8
 71
     3
 72
    12
 73
     8
 74
     0
 42
0.00000001
 43
0.00000001
 40
0.0
 40
0.0
 40
0.0
 40
0.0
 40
0.1114787997906769
 40
0.35666766322115
 40
0.6017326103623004
 40
0.8468215735819274
 40
1.0
 40
1.0
 40
1.0
 40
1.0
 10
1749.750821231359
 20
-1220.335109375496
 30
0.0
 10
1749.772626346595
 20
-1220.534053345716
 30
0.0
 10
1749.842390099991
 20
-1221.170558951297
 30
0.0
 10
1749.114342370141
 20
-1222.237264540419
 30
0.0
 10
1747.683104212042
 20
-1223.33751895988
 30
0.0
 10
1745.920462763203
 20
-1224.047575928809
 30
0.0
 10
1744.6881831961
 20
-1224.269578135878
 30
0.0
 10
1744.214233658911
 20
-1224.354962853845
 30
0.0
  0
SPLINE
  5
112
330
1F
100
AcDbEntity
  8
0
  6
Continuous
 62
     7
370
    25
100
AcDbSpline
210
0.0
220
0.0
230
1.0
 70
     8
 71
     3
 72
    12
 73
     8
 74
     0
 42
0.00000001
 43
0.00000001
 40
0.0
 40
0.0
 40
0.0
 40
0.0
 40
0.2461494825335558
 40
0.4922918397329516
 40
0.7385792391923559
 40
0.9848573242496583
 40
1.0
 40
1.0
 40
1.0
 40
1.0
 10
1790.963576660722
 20
-1253.340655443782
 30
0.0
 10
1790.207742052909
 20
-1253.178971999231
 30
0.0
 10
1788.696094716566
 20
-1252.855609790408
 30
0.0
 10
1786.861732141624
 20
-1251.830413661858
 30
0.0
 10
1785.721223090951
 20
-1250.54930235046
 30
0.0
 10
1785.232044845673
 20
-1249.538924989555
 30
0.0
 10
1785.362223870692
 20
-1249.039159579031
 30
0.0
 10
1785.369764430054
 20
-1249.010210900512
 30
0.0
  0
SPLINE
  5
113
330
1F
100
AcDbEntity
  8
0
  6
Continuous
 62
     7
370
    25
100
AcDbSpline
210
0.0
220
0.0
230
1.0
 70
     8
 71
     3
 72
    13
 73
     9
 74
     0
 42
0.00000001
 43
0.00000001
 40
0.0
 40
0.0
 40
0.0
 40
0.0
 40
0.1196148265525404
 40
0.3104559846254697
 40
0.5009483440124483
 40
0.6911418028232295
 40
0.8812636716217621
 40
1.0
 40
1.0
 40
1.0
 40
1.0
 10
1799.253562481483
 20
-1249.313187117078
 30
0.0
 10
1799.260070019464
 20
-1249.61924465693
 30
0.0
 10
1799.27696010048
 20
-1250.413606005146
 30
0.0
 10
1798.412061768241
 20
-1251.596550178075
 30
0.0
 10
1796.86174056855
 20
-1252.67351461977
 30
0.0
 10
1794.775604875411
 20
-1253.341279536922
 30
0.0
 10
1792.710668049413
 20
-1253.533728841199
 30
0.0
 10
1791.448716681084
 20
-1253.394268913896
 30
0.0
 10
1790.963576660722
 20
-1253.340655443782
 30
0.0
  0
LWPOLYLINE
  5
114
330
1F
100
AcDbEntity
  8
0
  6
Continuous
 62
     7
370
    25
100
AcDbPolyline
 90
      241
 70
   128
 43
0.0
 10
1334.8488017898
 20
-1554.3811472938
 10
1334.9941864899
 20
-1541.6403481203
 10
1335.4302409508
 20
-1529.076138456
 10
1336.1566663226
 20
-1516.6971291825
 10
1337.1729647497
 20
-1504.5118042544
 10
1338.4784397117
 20
-1492.5285148849
 10
1340.0721965015
 20
-1480.7554738218
 10
1341.9531428376
 20
-1469.2007497194
 10
1344.1199896136
 20
-1457.8722616084
 10
1346.5712517807
 20
-1446.7777734688
 10
1349.3052493664
 20
-1435.9248889085
 10
1352.3201086252
 20
-1425.3210459525
 10
1355.6137633233
 20
-1414.973511945
 10
1359.1839561543
 20
-1404.8893785691
 10
1363.0282402862
 20
-1395.075556986
 10
1367.1439810388
 20
-1385.5387730987
 10
1371.528357689
 20
-1376.2855629427
 10
1376.1783654039
 20
-1367.3222682059
 10
1381.0908173007
 20
-1358.6550318829
 10
1386.2623466301
 20
-1350.2897940644
 10
1391.6894090842
 20
-1342.2322878667
 10
1397.3682852256
 20
-1334.4880355019
 10
1403.2950830362
 20
-1327.0623444939
 10
1409.4657405849
 20
-1319.9603040402
 10
1415.8760288111
 20
-1313.1867815248
 10
1422.5215544235
 20
-1306.7464191815
 10
1429.3977629109
 20
-1300.6436309131
 10
1436.4999416634
 20
-1294.8825992657
 10
1443.8232232024
 20
-1289.4672725627
 10
1451.3625885167
 20
-1284.4013621985
 10
1459.1128705017
 20
-1279.688340095
 10
1467.0687575014
 20
-1275.3314363222
 10
1475.2247969482
 20
-1271.3336368842
 10
1483.5753991001
 20
-1267.6976816731
 10
1492.1148408715
 20
-1264.426062591
 10
1500.8372697556
 20
-1261.5210218422
 10
1509.7367078352
 20
-1258.9845503965
 10
1518.8070558802
 20
-1256.8183866247
 10
1528.0420975269
 20
-1255.0240151073
 10
1537.4355035392
 20
-1253.6026656169
 10
1546.9808361457
 20
-1252.5553122753
 10
1556.6715534524
 20
-1251.8826728864
 10
1566.5010139256
 20
-1251.5852084435
 10
1576.4624809442
 20
-1251.663122814
 10
1586.5491274161
 20
-1252.1163625991
 10
1596.7540404578
 20
-1252.9446171709
 10
1607.0702261317
 20
-1254.1473188852
 10
1617.4906142392
 20
-1255.7236434703
 10
1628.0080631671
 20
-1257.6725105921
 10
1638.615364781
 20
-1259.9925845943
 10
1649.3052493664
 20
-1262.6822754142
 10
1660.0703906103
 20
-1265.739739672
 10
1670.9034106226
 20
-1269.1628819344
 10
1681.7968849925
 20
-1272.9493561507
 10
1692.743347877
 20
-1277.0965672606
 10
1703.7352971169
 20
-1281.6016729728
 10
1714.7651993796
 20
-1286.4615857129
 10
1725.8254953207
 20
-1291.6729747395
 10
1736.9086047661
 20
-1297.2322684267
 10
1748.0069319061
 20
-1303.1356567124
 10
1759.1128705017
 20
-1309.3790937092
 10
1770.2188090973
 20
-1315.9583004772
 10
1781.3171362373
 20
-1322.8687679567
 10
1792.4002456827
 20
-1330.1057600585
 10
1803.4605416238
 20
-1337.6643169098
 10
1814.4904438865
 20
-1345.5392582531
 10
1825.4823931264
 20
-1353.7251869971
 10
1836.4288560109
 20
-1362.2164929151
 10
1847.3223303808
 20
-1371.0073564902
 10
1858.1553503931
 20
-1380.0917529036
 10
1868.920491637
 20
-1389.4634561637
 10
1879.6103762224
 20
-1399.1160433734
 10
1890.2176778364
 20
-1409.0428991314
 10
1900.7351267642
 20
-1419.2372200666
 10
1911.1555148717
 20
-1429.6920195009
 10
1921.4717005456
 20
-1440.4001322367
 10
1931.6766135873
 20
-1451.3542194686
 10
1941.7632600592
 20
-1462.5467738124
 10
1951.7247270778
 20
-1473.9701244502
 10
1961.554187551
 20
-1485.6164423884
 10
1971.2449048577
 20
-1497.4777458222
 10
1980.7902374642
 20
-1509.5459056067
 10
1990.1836434765
 20
-1521.8126508282
 10
1999.4186851232
 20
-1534.2695744721
 10
2008.4890331682
 20
-1546.9081391853
 10
2017.3884712478
 20
-1559.7196831267
 10
2026.1109001319
 20
-1572.6954259041
 10
2034.6503419033
 20
-1585.8264745916
 10
2043.0009440552
 20
-1599.1038298243
 10
2051.156983502
 20
-1612.5183919662
 10
2059.1128705017
 20
-1626.0609673463
 10
2066.8631524867
 20
-1639.7222745601
 10
2074.402517801
 20
-1653.49295083
 10
2081.72579934
 20
-1667.3635584222
 10
2088.8279780925
 20
-1681.3245911153
 10
2095.7041865799
 20
-1695.3664807148
 10
2102.3497121923
 20
-1709.4796036109
 10
2108.7600004185
 20
-1723.6542873742
 10
2114.9306579672
 20
-1737.8808173844
 10
2120.8574557778
 20
-1752.1494434886
 10
2126.5363319192
 20
-1766.4503866832
 10
2131.9633943733
 20
-1780.7738458159
 10
2137.1349237027
 20
-1795.1100043035
 10
2142.0473755995
 20
-1809.449036859
 10
2146.6973833145
 20
-1823.7811162256
 10
2151.0817599646
 20
-1838.0964199122
 10
2155.1975007172
 20
-1852.3851369247
 10
2159.0417848491
 20
-1866.6374744901
 10
2162.6119776801
 20
-1880.8436647682
 10
2165.9056323782
 20
-1894.9939715458
 10
2168.920491637
 20
-1909.0786969094
 10
2171.6544892227
 20
-1923.0881878919
 10
2174.1057513898
 20
-1937.0128430878
 10
2176.2725981658
 20
-1950.8431192342
 10
2178.1535445019
 20
-1964.5695377505
 10
2179.7473012917
 20
-1978.1826912352
 10
2181.0527762537
 20
-1991.6732499128
 10
2182.0690746808
 20
-2005.0319680283
 10
2182.7955000526
 20
-2018.2496901836
 10
2183.2315545135
 20
-2031.3173576122
 10
2183.3769392136
 20
-2044.2260143875
 10
2183.2315545135
 20
-2056.966813561
 10
2182.7955000526
 20
-2069.5310232253
 10
2182.0690746808
 20
-2081.9100324988
 10
2181.0527762537
 20
-2094.0953574269
 10
2179.7473012917
 20
-2106.0786467964
 10
2178.1535445019
 20
-2117.8516878595
 10
2176.2725981658
 20
-2129.4064119619
 10
2174.1057513898
 20
-2140.7349000729
 10
2171.6544892227
 20
-2151.8293882125
 10
2168.920491637
 20
-2162.6822727728
 10
2165.9056323782
 20
-2173.2861157288
 10
2162.6119776801
 20
-2183.6336497363
 10
2159.0417848491
 20
-2193.7177831122
 10
2155.1975007172
 20
-2203.5316046954
 10
2151.0817599646
 20
-2213.0683885826
 10
2146.6973833145
 20
-2222.3215987386
 10
2142.0473755995
 20
-2231.2848934754
 10
2137.1349237027
 20
-2239.9521297984
 10
2131.9633943733
 20
-2248.3173676169
 10
2126.5363319192
 20
-2256.3748738146
 10
2120.8574557778
 20
-2264.1191261794
 10
2114.9306579672
 20
-2271.5448171874
 10
2108.7600004185
 20
-2278.6468576411
 10
2102.3497121923
 20
-2285.4203801565
 10
2095.7041865799
 20
-2291.8607424998
 10
2088.8279780925
 20
-2297.9635307682
 10
2081.72579934
 20
-2303.7245624156
 10
2074.402517801
 20
-2309.1398891186
 10
2066.8631524867
 20
-2314.2057994828
 10
2059.1128705017
 20
-2318.9188215863
 10
2051.156983502
 20
-2323.2757253591
 10
2043.0009440552
 20
-2327.2735247971
 10
2034.6503419033
 20
-2330.9094800082
 10
2026.1109001319
 20
-2334.1810990903
 10
2017.3884712478
 20
-2337.0861398391
 10
2008.4890331682
 20
-2339.6226112848
 10
1999.4186851232
 20
-2341.7887750566
 10
1990.1836434765
 20
-2343.583146574
 10
1980.7902374642
 20
-2345.0044960645
 10
1971.2449048577
 20
-2346.051849406
 10
1961.554187551
 20
-2346.7244887949
 10
1951.7247270778
 20
-2347.0219532378
 10
1941.7632600592
 20
-2346.9440388673
 10
1931.6766135873
 20
-2346.4907990823
 10
1921.4717005456
 20
-2345.6625445104
 10
1911.1555148717
 20
-2344.4598427961
 10
1900.7351267642
 20
-2342.883518211
 10
1890.2176778363
 20
-2340.9346510892
 10
1879.6103762224
 20
-2338.614577087
 10
1868.920491637
 20
-2335.9248862671
 10
1858.1553503931
 20
-2332.8674220093
 10
1847.3223303808
 20
-2329.4442797469
 10
1836.4288560109
 20
-2325.6578055306
 10
1825.4823931264
 20
-2321.5105944207
 10
1814.4904438865
 20
-2317.0054887085
 10
1803.4605416238
 20
-2312.1455759684
 10
1792.4002456827
 20
-2306.9341869419
 10
1781.3171362373
 20
-2301.3748932546
 10
1770.2188090973
 20
-2295.4715049689
 10
1759.1128705017
 20
-2289.2280679721
 10
1748.0069319061
 20
-2282.6488612041
 10
1736.9086047661
 20
-2275.7383937246
 10
1725.8254953207
 20
-2268.5014016228
 10
1714.7651993796
 20
-2260.9428447715
 10
1703.7352971169
 20
-2253.0679034282
 10
1692.743347877
 20
-2244.8819746842
 10
1681.7968849925
 20
-2236.3906687662
 10
1670.9034106226
 20
-2227.5998051911
 10
1660.0703906103
 20
-2218.5154087777
 10
1649.3052493664
 20
-2209.1437055176
 10
1638.615364781
 20
-2199.4911183079
 10
1628.0080631671
 20
-2189.5642625499
 10
1617.4906142392
 20
-2179.3699416147
 10
1607.0702261317
 20
-2168.9151421804
 10
1596.7540404578
 20
-2158.2070294446
 10
1586.5491274161
 20
-2147.2529422127
 10
1576.4624809442
 20
-2136.060387869
 10
1566.5010139256
 20
-2124.6370372311
 10
1556.6715534524
 20
-2112.9907192929
 10
1546.9808361457
 20
-2101.1294158591
 10
1537.4355035392
 20
-2089.0612560746
 10
1528.0420975269
 20
-2076.7945108531
 10
1518.8070558802
 20
-2064.3375872092
 10
1509.7367078352
 20
-2051.699022496
 10
1500.8372697556
 20
-2038.8874785546
 10
1492.1148408715
 20
-2025.9117357772
 10
1483.5753991001
 20
-2012.7806870897
 10
1475.2247969482
 20
-1999.503331857
 10
1467.0687575014
 20
-1986.0887697151
 10
1459.1128705017
 20
-1972.546194335
 10
1451.3625885167
 20
-1958.8848871212
 10
1443.8232232024
 20
-1945.1142108513
 10
1436.4999416634
 20
-1931.2436032591
 10
1429.3977629109
 20
-1917.282570566
 10
1422.5215544235
 20
-1903.2406809665
 10
1415.8760288111
 20
-1889.1275580704
 10
1409.4657405849
 20
-1874.9528743071
 10
1403.2950830362
 20
-1860.7263442969
 10
1397.3682852256
 20
-1846.4577181927
 10
1391.6894090842
 20
-1832.1567749981
 10
1386.2623466301
 20
-1817.8333158654
 10
1381.0908173007
 20
-1803.4971573778
 10
1376.1783654039
 20
-1789.1581248223
 10
1371.528357689
 20
-1774.8260454557
 10
1367.1439810388
 20
-1760.5107417691
 10
1363.0282402862
 20
-1746.2220247566
 10
1359.1839561543
 20
-1731.9696871912
 10
1355.6137633233
 20
-1717.7634969131
 10
1352.3201086252
 20
-1703.6131901355
 10
1349.3052493664
 20
-1689.5284647719
 10
1346.5712517807
 20
-1675.5189737894
 10
1344.1199896136
 20
-1661.5943185935
 10
1341.9531428376
 20
-1647.7640424471
 10
1340.0721965015
 20
-1634.0376239308
 10
1338.4784397117
 20
-1620.4244704461
 10
1337.1729647497
 20
-1606.9339117685
 10
1336.1566663226
 20
-1593.575193653
 10
1335.4302409508
 20
-1580.3574714977
 10
1334.9941864899
 20
-1567.2898040691
 10
1334.8488017898
 20
-1554.3811472938
  0
LWPOLYLINE
  5
115
330
1F
100
AcDbEntity
  8
0
  6
Continuous
 62
     7
370
    25
100
AcDbPolyline
 90
       55
 70
   128
 43
0.0
 10
2181.7697592573
 20
-2000.6945807669
 10
2174.3846071508
 20
-1995.6102084291
 10
2163.3547048882
 20
-1987.7352670858
 10
2152.3627556482
 20
-1979.5493383418
 10
2141.4162927638
 20
-1971.0580324238
 10
2130.5228183938
 20
-1962.2671688487
 10
2119.6897983815
 20
-1953.1827724353
 10
2108.9246571376
 20
-1943.8110691752
 10
2098.2347725522
 20
-1934.1584819656
 10
2087.6274709383
 20
-1924.2316262076
 10
2077.1100220105
 20
-1914.0373052723
 10
2066.6896339029
 20
-1903.5825058381
 10
2056.3734482291
 20
-1892.8743931022
 10
2046.1685351874
 20
-1881.9203058703
 10
2036.0818887154
 20
-1870.7277515266
 10
2026.1204216969
 20
-1859.3044008887
 10
2016.2909612237
 20
-1847.6580829506
 10
2006.600243917
 20
-1835.7967795168
 10
1997.0549113104
 20
-1823.7286197322
 10
1987.6615052981
 20
-1811.4618745107
 10
1978.4264636514
 20
-1799.0049508668
 10
1969.3561156065
 20
-1786.3663861536
 10
1960.4566775268
 20
-1773.5548422122
 10
1951.7342486428
 20
-1760.5790994348
 10
1943.1948068714
 20
-1747.4480507473
 10
1934.8442047195
 20
-1734.1706955146
 10
1926.6881652727
 20
-1720.7561333728
 10
1918.732278273
 20
-1707.2135579926
 10
1910.9819962879
 20
-1693.5522507788
 10
1903.4426309737
 20
-1679.7815745089
 10
1896.1193494347
 20
-1665.9109669167
 10
1889.0171706822
 20
-1651.9499342236
 10
1882.1409621948
 20
-1637.9080446242
 10
1875.4954365823
 20
-1623.794921728
 10
1869.0851483561
 20
-1609.6202379648
 10
1862.9144908075
 20
-1595.3937079545
 10
1856.9876929969
 20
-1581.1250818503
 10
1851.3088168555
 20
-1566.8241386557
 10
1845.8817544013
 20
-1552.500679523
 10
1840.7102250719
 20
-1538.1645210354
 10
1835.7977731752
 20
-1523.82548848
 10
1831.1477654602
 20
-1509.4934091133
 10
1826.76338881
 20
-1495.1781054267
 10
1822.6476480574
 20
-1480.8893884142
 10
1818.8033639255
 20
-1466.6370508488
 10
1815.2331710946
 20
-1452.4308605708
 10
1811.9395163965
 20
-1438.2805537932
 10
1808.9246571376
 20
-1424.1958284295
 10
1806.1906595519
 20
-1410.1863374471
 10
1803.7393973848
 20
-1396.2616822511
 10
1801.5725506089
 20
-1382.4314061047
 10
1799.6916042727
 20
-1368.7049875884
 10
1798.097847483
 20
-1355.0918341037
 10
1796.7923725209
 20
-1341.6012754261
 10
1796.0753895174
 20
-1332.579944572
  0
LWPOLYLINE
  5
116
330
1F
100
AcDbEntity
  8
0
  6
Continuous
 62
     7
370
    25
100
AcDbPolyline
 90
       29
 70
   128
 43
0.0
 10
1878.9827955242
 20
-938.0356648079
 10
1884.8285090759
 20
-934.8961259321
 10
1894.1535808435
 20
-930.3253085747
 10
1903.7011026371
 20
-926.1681997834
 10
1913.4645310624
 20
-922.4276486328
 10
1923.4371747532
 20
-919.10621871
 10
1933.6121989576
 20
-916.2061863571
 10
1943.9826302223
 20
-913.7295391114
 10
1954.5413611718
 20
-911.6779743431
 10
1965.2811553791
 20
-910.0528980924
 10
1976.194652326
 20
-908.8554241053
 10
1987.2743724466
 20
-908.0863730706
 10
1998.5127222543
 20
-907.7462720576
 10
2009.9019995455
 20
-907.8353541544
 10
2021.4343986785
 20
-908.3535583087
 10
2033.1020159228
 20
-909.3005293692
 10
2044.8968548765
 20
-910.6756183292
 10
2056.8108319462
 20
-912.4778827715
 10
2068.835781887
 20
-914.7060875141
 10
2080.963463399
 20
-917.3587054566
 10
2093.1855647749
 20
-920.4339186273
 10
2105.4937095971
 20
-923.9296194287
 10
2117.8794624778
 20
-927.8434120821
 10
2130.3343348408
 20
-932.1726142694
 10
2142.8497907387
 20
-936.9142589718
 10
2155.4172527031
 20
-942.0650965027
 10
2168.0281076233
 20
-947.6215967356
 10
2180.6737126494
 20
-953.5799515226
 10
2188.7697307396
 20
-957.5965486144
  0
LWPOLYLINE
  5
117
330
1F
100
AcDbEntity
  8
0
  6
Continuous
 62
     7
370
    25
100
AcDbPolyline
 90
       94
 70
   128
 43
0.0
 10
2191.226485432
 20
-958.8464545327
 10
2193.3454011153
 20
-959.936077305
 10
2206.0344884787
 20
-966.6856179117
 10
2218.732278273
 20
-973.8239475447
 10
2231.4300680672
 20
-981.3461739494
 10
2244.1191554306
 20
-989.2471417676
 10
2256.7908438965
 20
-997.5214360707
 10
2269.4364489226
 20
-1006.1633860706
 10
2282.0473038429
 20
-1015.1670690065
 10
2294.6147658072
 20
-1024.5263142038
 10
2307.1302217051
 20
-1034.2347073034
 10
2319.5850940681
 20
-1044.2855946576
 10
2331.9708469488
 20
-1054.6720878902
 10
2344.278991771
 20
-1065.3870686177
 10
2356.501093147
 20
-1076.4231933273
 10
2368.6287746589
 20
-1087.7728984107
 10
2380.6537245997
 20
-1099.4284053467
 10
2392.5677016694
 20
-1111.3817260331
 10
2404.3625406231
 20
-1123.6246682611
 10
2416.0301578675
 20
-1136.1488413296
 10
2427.5625570004
 20
-1148.9456617959
 10
2438.9518342916
 20
-1162.0063593586
 10
2450.1901840993
 20
-1175.3219828678
 10
2461.2699042199
 20
-1188.8834064605
 10
2472.1834011668
 20
-1202.6813358142
 10
2482.9231953742
 20
-1216.7063145174
 10
2493.4819263236
 20
-1230.9487305503
 10
2503.8523575883
 20
-1245.3988228723
 10
2514.0273817927
 20
-1260.046688112
 10
2524.0000254835
 20
-1274.8822873542
 10
2533.7634539088
 20
-1289.8954530202
 10
2543.3109757024
 20
-1305.0758958363
 10
2552.63604747
 20
-1320.4132118851
 10
2561.732278273
 20
-1335.8968897364
 10
2570.5934340092
 20
-1351.5163176509
 10
2579.2134416851
 20
-1367.2607908527
 10
2587.5863935781
 20
-1383.1195188666
 10
2595.7065512851
 20
-1399.0816329123
 10
2603.5683496557
 20
-1415.1361933544
 10
2611.1664006059
 20
-1431.2721971989
 10
2618.4954968112
 20
-1447.4785856349
 10
2625.5506152751
 20
-1463.7442516133
 10
2632.3269207719
 20
-1480.0580474591
 10
2638.8197691603
 20
-1496.4087925116
 10
2645.0247105662
 20
-1512.7852807867
 10
2650.9374924328
 20
-1529.1762886575
 10
2656.5540624348
 20
-1545.5705825459
 10
2661.8705712555
 20
-1561.9569266218
 10
2666.8833752256
 20
-1578.3240905035
 10
2671.5890388194
 20
-1594.6608569544
 10
2675.9843370102
 20
-1610.9560295708
 10
2680.0662574802
 20
-1627.1984404554
 10
2683.8320026851
 20
-1643.3769578711
 10
2687.278991771
 20
-1659.4804938702
 10
2690.404862344
 20
-1675.4980118935
 10
2693.2074720884
 20
-1691.4185343342
 10
2695.6849002355
 20
-1707.2311500616
 10
2697.8354488799
 20
-1722.9250218985
 10
2699.6576441428
 20
-1738.4893940494
 10
2701.1502371828
 20
-1753.9135994708
 10
2702.312205051
 20
-1769.1870671828
 10
2703.1427513928
 20
-1784.2993295137
 10
2703.6413069931
 20
-1799.2400292737
 10
2703.8075301669
 20
-1813.9989268535
 10
2703.6413069931
 20
-1828.5659072418
 10
2703.1427513928
 20
-1842.9309869581
 10
2702.312205051
 20
-1857.0843208941
 10
2701.1502371828
 20
-1871.0162090619
 10
2699.6576441428
 20
-1884.7171032411
 10
2697.8354488799
 20
-1898.1776135232
 10
2695.6849002355
 20
-1911.3885147469
 10
2693.2074720884
 20
-1924.3407528205
 10
2690.404862344
 20
-1937.0254509267
 10
2687.278991771
 20
-1949.4339156074
 10
2683.8320026851
 20
-1961.5576427204
 10
2680.0662574802
 20
-1973.3883232689
 10
2675.9843370102
 20
-1984.9178490954
 10
2671.5890388194
 20
-1996.1383184388
 10
2666.8833752256
 20
-2007.0420413499
 10
2661.8705712555
 20
-2017.6215449616
 10
2656.5540624348
 20
-2027.8695786106
 10
2650.9374924328
 20
-2037.7791188066
 10
2645.0247105662
 20
-2047.3433740458
 10
2638.8197691603
 20
-2056.5557894652
 10
2632.3269207719
 20
-2065.4100513356
 10
2625.5506152751
 20
-2073.9000913881
 10
2618.4954968112
 20
-2082.0200909734
 10
2611.1664006059
 20
-2089.7644850494
 10
2603.5683496556
 20
-2097.1279659952
 10
2595.7065512851
 20
-2104.1054872488
 10
2587.5863935781
 20
-2110.6922667656
 10
2579.2134416851
 20
-2116.8837902961
 10
2570.5934340092
 20
-2122.6758144792
 10
2564.8969609455
 20
-2126.202810167
  0
SPLINE
  5
118
330
1F
100
AcDbEntity
  8
0
  6
Continuous
 62
     7
370
    25
100
AcDbSpline
210
0.0
220
0.0
230
1.0
 70
     8
 71
     3
 72
    12
 73
     8
 74
     0
 42
0.00000001
 43
0.00000001
 40
0.0
 40
0.0
 40
0.0
 40
0.0
 40
0.2463070982206854
 40
0.4926161181732856
 40
0.7388402610937975
 40
0.9847604194855732
 40
1.0
 40
1.0
 40
1.0
 40
1.0
 10
2233.616452036239
 20
-997.6844601129026
 30
0.0
 10
2232.860174482789
 20
-997.5152670125062
 30
0.0
 10
2231.347613475277
 20
-997.1768794916386
 30
0.0
 10
2229.511470321868
 20
-996.1479560504781
 30
0.0
 10
2228.370266175241
 20
-994.8798340708656
 30
0.0
 10
2227.881236253107
 20
-993.8861049029887
 30
0.0
 10
2228.011154926987
 20
-993.4003634624859
 30
0.0
 10
2228.01873613418
 20
-993.3720187573535
 30
0.0
  0
SPLINE
  5
119
330
1F
100
AcDbEntity
  8
0
  6
Continuous
 62
     7
370
    25
100
AcDbSpline
210
0.0
220
0.0
230
1.0
 70
     8
 71
     3
 72
    13
 73
     9
 74
     0
 42
0.00000001
 43
0.00000001
 40
0.0
 40
0.0
 40
0.0
 40
0.0
 40
0.1194660202026153
 40
0.3099528753362611
 40
0.500178283175436
 40
0.6903513280193632
 40
0.8807331049386385
 40
1.0
 40
1.0
 40
1.0
 40
1.0
 10
2241.902561071163
 20
-993.8789699839674
 30
0.0
 10
2241.909055109868
 20
-994.1776355231456
 30
0.0
 10
2241.925903800113
 20
-994.9525189793371
 30
0.0
 10
2241.062869665367
 20
-996.0929441417412
 30
0.0
 10
2239.516130204138
 20
-997.1201133189531
 30
0.0
 10
2237.433040512033
 20
-997.741204344228
 30
0.0
 10
2235.367512789655
 20
-997.8992914878694
 30
0.0
 10
2234.103362736553
 20
-997.7441974435636
 30
0.0
 10
2233.616452036239
 20
-997.6844601129026
 30
0.0
  0
SPLINE
  5
11A
330
1F
100
AcDbEntity
  8
0
  6
Continuous
 62
     7
370
    25
100
AcDbSpline
210
0.0
220
0.0
230
1.0
 70
     8
 71
     3
 72
    13
 73
     9
 74
     0
 42
0.00000001
 43
0.00000001
 40
0.0
 40
0.0
 40
0.0
 40
0.0
 40
0.1906537888224818
 40
0.3813022909508232
 40
0.5720940137977085
 40
0.7631446657404564
 40
0.9544000101284453
 40
1.0
 40
1.0
 40
1.0
 40
1.0
 10
2186.866618702493
 20
-968.7380385601756
 30
0.0
 10
2186.079656844107
 20
-968.7944023171069
 30
0.0
 10
2184.505754949228
 20
-968.9071282680427
 30
0.0
 10
2182.220223033037
 20
-968.5318333948144
 30
0.0
 10
2180.297409478265
 20
-967.7987130869756
 30
0.0
 10
2179.020355318774
 20
-966.7527476543517
 30
0.0
 10
2178.435063818572
 20
-965.8321288406772
 30
0.0
 10
2178.548669030768
 20
-965.3100061386663
 30
0.0
 10
2178.570540594445
 20
-965.2094857514103
 30
0.0
  0
SPLINE
  5
11B
330
1F
100
AcDbEntity
  8
0
  6
Continuous
 62
     7
370
    25
100
AcDbSpline
210
0.0
220
0.0
230
1.0
 70
     8
 71
     3
 72
    12
 73
     8
 74
     0
 42
0.00000001
 43
0.00000001
 40
0.0
 40
0.0
 40
0.0
 40
0.0
 40
0.1102753424052079
 40
0.3559726881623226
 40
0.6014373124530142
 40
0.8467056650792626
 40
1.0
 40
1.0
 40
1.0
 40
1.0
 10
2192.399701562747
 20
-964.9007561988687
 30
0.0
 10
2192.42181797719
 20
-965.0924695674095
 30
0.0
 10
2192.493210541746
 20
-965.7113270714319
 30
0.0
 10
2191.767826902524
 20
-966.7393691698695
 30
0.0
 10
2190.337650518437
 20
-967.7929853972812
 30
0.0
 10
2188.574141851544
 20
-968.4615449211219
 30
0.0
 10
2187.340932908599
 20
-968.6612344120306
 30
0.0
 10
2186.866618702493
 20
-968.7380385601756
 30
0.0
  0
LWPOLYLINE
  5
11C
330
1F
100
AcDbEntity
  8
0
  6
Continuous
 62
     7
370
    25
100
AcDbPolyline
 90
       29
 70
   128
 43
0.0
 10
1797.2966366858
 20
-1242.4216855341
 10
1798.2739586121
 20
-1243.129164864
 10
1798.9540725296
 20
-1243.9444516173
 10
1799.3028746867
 20
-1244.8266639117
 10
1799.3028746867
 20
-1245.7315639392
 10
1798.9540725296
 20
-1246.6137762336
 10
1798.2739586121
 20
-1247.4290629869
 10
1797.2966366858
 20
-1248.1365423168
 10
1796.0711137531
 20
-1248.7007382556
 10
1794.6588426512
 20
-1249.0933596631
 10
1793.1306405502
 20
-1249.2947188623
 10
1791.5631378847
 20
-1249.2947188623
 10
1790.0349357838
 20
-1249.0933596631
 10
1788.6226646819
 20
-1248.7007382556
 10
1787.3971417492
 20
-1248.1365423168
 10
1786.4198198229
 20
-1247.4290629869
 10
1785.7397059053
 20
-1246.6137762336
 10
1785.3909037482
 20
-1245.7315639392
 10
1785.3909037482
 20
-1244.8266639117
 10
1785.7397059053
 20
-1243.9444516173
 10
1786.4198198229
 20
-1243.129164864
 10
1787.3971417492
 20
-1242.4216855341
 10
1788.6226646819
 20
-1241.8574895953
 10
1790.0349357838
 20
-1241.4648681878
 10
1791.5631378847
 20
-1241.2635089886
 10
1793.1306405502
 20
-1241.2635089886
 10
1794.6588426512
 20
-1241.4648681878
 10
1796.0711137531
 20
-1241.8574895953
 10
1797.2966366858
 20
-1242.4216855341
  0
LWPOLYLINE
  5
11D
330
1F
100
AcDbEntity
  8
0
  6
Continuous
 62
     7
370
    25
100
AcDbPolyline
 90
       24
 70
   128
 43
0.0
 10
1795.8824231234
 20
-1243.2380936459
 10
1796.7051915676
 20
-1243.8644408957
 10
1797.2047246645
 20
-1244.5957079725
 10
1797.3439743293
 20
-1245.3776601424
 10
1797.1126130515
 20
-1246.1523035902
 10
1796.5277998387
 20
-1246.8621865552
 10
1795.6329076116
 20
-1247.4546602652
 10
1794.4943064326
 20
-1247.8857836558
 10
1793.1964411426
 20
-1248.1235822771
 10
1791.8355684728
 20
-1248.1504196934
 10
1790.5126181234
 20
-1247.9643054962
 10
1789.3257072699
 20
-1247.5790429242
 10
1788.3628636604
 20
-1247.0232051398
 10
1787.6954970008
 20
-1246.3380160887
 10
1787.3731028232
 20
-1245.5742931083
 10
1787.4195916289
 20
-1244.7886780383
 10
1787.8315155558
 20
-1244.0394363544
 10
1788.5783240908
 20
-1243.3821358849
 10
1789.6046298612
 20
-1242.8655255985
 10
1790.8343164631
 20
-1242.5279201168
 10
1792.1761836665
 20
-1242.3943580941
 10
1793.5307113198
 20
-1242.4747452146
 10
1794.7974403034
 20
-1242.7631195331
 10
1795.8824231234
 20
-1243.2380936459
  0
SPLINE
  5
11E
330
1F
100
AcDbEntity
  8
0
  6
Continuous
 62
     7
370
    25
100
AcDbSpline
210
0.0
220
0.0
230
1.0
 70
     8
 71
     3
 72
    13
 73
     9
 74
     0
 42
0.00000001
 43
0.00000001
 40
0.0
 40
0.0
 40
0.0
 40
0.0
 40
0.1670437021277711
 40
0.3641333258143162
 40
0.5611737097953873
 40
0.7582924386051325
 40
0.955611910804755
 40
1.0
 40
1.0
 40
1.0
 40
1.0
 10
1788.534029794613
 20
-1247.126398953198
 30
0.0
 10
1788.858916217831
 20
-1246.918297188856
 30
0.0
 10
1789.567125939547
 20
-1246.464662681284
 30
0.0
 10
1791.078515364476
 20
-1246.105818997866
 30
0.0
 10
1792.780256042924
 20
-1246.041352612545
 30
0.0
 10
1794.408450323733
 20
-1246.351418072226
 30
0.0
 10
1795.541812329981
 20
-1246.767059471654
 30
0.0
 10
1795.938907131776
 20
-1247.120704245321
 30
0.0
 10
1796.011831120498
 20
-1247.185648906822
 30
0.0
  0
LWPOLYLINE
  5
11F
330
1F
100
AcDbEntity
  8
0
  6
Continuous
 62
     7
370
    25
100
AcDbPolyline
 90
       29
 70
   128
 43
0.0
 10
1737.8996670661
 20
-1219.562258403
 10
1736.9223451398
 20
-1218.8547790731
 10
1736.2422312223
 20
-1218.0394923198
 10
1735.8934290652
 20
-1217.1572800254
 10
1735.8934290652
 20
-1216.2523799979
 10
1736.2422312223
 20
-1215.3701677035
 10
1736.9223451398
 20
-1214.5548809502
 10
1737.8996670661
 20
-1213.8474016203
 10
1739.1251899988
 20
-1213.2832056815
 10
1740.5374611007
 20
-1212.890584274
 10
1742.0656632017
 20
-1212.6892250748
 10
1743.6331658671
 20
-1212.6892250748
 10
1745.1613679681
 20
-1212.890584274
 10
1746.57363907
 20
-1213.2832056815
 10
1747.7991620027
 20
-1213.8474016203
 10
1748.776483929
 20
-1214.5548809502
 10
1749.4565978466
 20
-1215.3701677035
 10
1749.8054000037
 20
-1216.2523799979
 10
1749.8054000037
 20
-1217.1572800254
 10
1749.4565978466
 20
-1218.0394923198
 10
1748.776483929
 20
-1218.8547790731
 10
1747.7991620027
 20
-1219.562258403
 10
1746.57363907
 20
-1220.1264543418
 10
1745.1613679681
 20
-1220.5190757493
 10
1743.6331658671
 20
-1220.7204349485
 10
1742.0656632017
 20
-1220.7204349485
 10
1740.5374611007
 20
-1220.5190757493
 10
1739.1251899988
 20
-1220.1264543418
 10
1737.8996670661
 20
-1219.562258403
  0
LWPOLYLINE
  5
120
330
1F
100
AcDbEntity
  8
0
  6
Continuous
 62
     7
370
    25
100
AcDbPolyline
 90
       24
 70
   128
 43
0.0
 10
1739.3138806285
 20
-1218.7458502912
 10
1738.4911121842
 20
-1218.1195030414
 10
1737.9915790874
 20
-1217.3882359646
 10
1737.8523294226
 20
-1216.6062837947
 10
1738.0836907003
 20
-1215.8316403469
 10
1738.6685039131
 20
-1215.1217573819
 10
1739.5633961403
 20
-1214.5292836719
 10
1740.7019973193
 20
-1214.0981602813
 10
1741.9998626093
 20
-1213.86036166
 10
1743.3607352791
 20
-1213.8335242437
 10
1744.6836856285
 20
-1214.0196384409
 10
1745.870596482
 20
-1214.4049010129
 10
1746.8334400915
 20
-1214.9607387973
 10
1747.5008067511
 20
-1215.6459278484
 10
1747.8232009287
 20
-1216.4096508288
 10
1747.776712123
 20
-1217.1952658988
 10
1747.364788196
 20
-1217.9445075827
 10
1746.617979661
 20
-1218.6018080522
 10
1745.5916738907
 20
-1219.1184183386
 10
1744.3619872888
 20
-1219.4560238203
 10
1743.0201200853
 20
-1219.589585843
 10
1741.6655924321
 20
-1219.5091987225
 10
1740.3988634485
 20
-1219.220824404
 10
1739.3138806285
 20
-1218.7458502912
  0
SPLINE
  5
121
330
1F
100
AcDbEntity
  8
0
  6
Continuous
 62
     7
370
    25
100
AcDbSpline
210
0.0
220
0.0
230
1.0
 70
     8
 71
     3
 72
    13
 73
     9
 74
     0
 42
0.00000001
 43
0.00000001
 40
0.0
 40
0.0
 40
0.0
 40
0.0
 40
0.1322642956102743
 40
0.3407942129692101
 40
0.5496052621259437
 40
0.7587721256067812
 40
0.9681749977359525
 40
1.0
 40
1.0
 40
1.0
 40
1.0
 10
1739.373192486735
 20
-1218.771816438824
 30
0.0
 10
1739.624053249083
 20
-1218.62154446815
 30
0.0
 10
1740.270424937489
 20
-1218.234351403377
 30
0.0
 10
1741.69218875498
 20
-1217.88004942114
 30
0.0
 10
1743.394201838705
 20
-1217.741797892477
 30
0.0
 10
1745.010931854028
 20
-1217.95240765292
 30
0.0
 10
1746.105055486378
 20
-1218.262600206695
 30
0.0
 10
1746.470839524191
 20
-1218.546190513925
 30
0.0
 10
1746.519097122368
 20
-1218.583604358376
 30
0.0
  0
LWPOLYLINE
  5
122
330
1F
100
AcDbEntity
  8
0
  6
Continuous
 62
     7
370
    25
100
AcDbPolyline
 90
       29
 70
   128
 43
0.0
 10
2230.0459867719
 20
-992.6008033163
 10
2229.0686648457
 20
-991.8933239864
 10
2228.3885509281
 20
-991.0780372331
 10
2228.039748771
 20
-990.1958249387
 10
2228.039748771
 20
-989.2909249112
 10
2228.3885509281
 20
-988.4087126168
 10
2229.0686648457
 20
-987.5934258635
 10
2230.0459867719
 20
-986.8859465336
 10
2231.2715097046
 20
-986.3217505948
 10
2232.6837808066
 20
-985.9291291873
 10
2234.2119829075
 20
-985.7277699881
 10
2235.779485573
 20
-985.7277699881
 10
2237.3076876739
 20
-985.9291291873
 10
2238.7199587759
 20
-986.3217505948
 10
2239.9454817086
 20
-986.8859465336
 10
2240.9228036348
 20
-987.5934258635
 10
2241.6029175524
 20
-988.4087126168
 10
2241.9517197095
 20
-989.2909249112
 10
2241.9517197095
 20
-990.1958249387
 10
2241.6029175524
 20
-991.0780372331
 10
2240.9228036348
 20
-991.8933239864
 10
2239.9454817086
 20
-992.6008033163
 10
2238.7199587759
 20
-993.1649992551
 10
2237.3076876739
 20
-993.5576206625
 10
2235.779485573
 20
-993.7589798618
 10
2234.2119829075
 20
-993.7589798618
 10
2232.6837808066
 20
-993.5576206625
 10
2231.2715097046
 20
-993.1649992551
 10
2230.0459867719
 20
-992.6008033163
  0
LWPOLYLINE
  5
123
330
1F
100
AcDbEntity
  8
0
  6
Continuous
 62
     7
370
    25
100
AcDbPolyline
 90
       24
 70
   128
 43
0.0
 10
2231.4602003343
 20
-991.7843952045
 10
2230.6374318901
 20
-991.1580479547
 10
2230.1378987933
 20
-990.4267808779
 10
2229.9986491284
 20
-989.644828708
 10
2230.2300104062
 20
-988.8701852602
 10
2230.814823619
 20
-988.1603022952
 10
2231.7097158462
 20
-987.5678285851
 10
2232.8483170251
 20
-987.1367051946
 10
2234.1461823151
 20
-986.8989065733
 10
2235.507054985
 20
-986.872069157
 10
2236.8300053343
 20
-987.0581833542
 10
2238.0169161879
 20
-987.4434459262
 10
2238.9797597973
 20
-987.9992837106
 10
2239.6471264569
 20
-988.6844727617
 10
2239.9695206345
 20
-989.4481957421
 10
2239.9230318288
 20
-990.2338108121
 10
2239.5111079019
 20
-990.983052496
 10
2238.7642993669
 20
-991.6403529655
 10
2237.7379935965
 20
-992.1569632519
 10
2236.5083069947
 20
-992.4945687335
 10
2235.1664397912
 20
-992.6281307562
 10
2233.8119121379
 20
-992.5477436358
 10
2232.5451831544
 20
-992.2593693172
 10
2231.4602003343
 20
-991.7843952045
  0
SPLINE
  5
124
330
1F
100
AcDbEntity
  8
0
  6
Continuous
 62
     7
370
    25
100
AcDbSpline
210
0.0
220
0.0
230
1.0
 70
     8
 71
     3
 72
    13
 73
     9
 74
     0
 42
0.00000001
 43
0.00000001
 40
0.0
 40
0.0
 40
0.0
 40
0.0
 40
0.1495585781366499
 40
0.3539148113518107
 40
0.5584312517249479
 40
0.7631586482885462
 40
0.9680859250022872
 40
1.0
 40
1.0
 40
1.0
 40
1.0
 10
2231.30676941321
 20
-991.5170028412002
 30
0.0
 10
2231.587091620217
 20
-991.3459786927656
 30
0.0
 10
2232.250444951376
 20
-990.9412678431171
 30
0.0
 10
2233.703707969264
 20
-990.6281637806424
 30
0.0
 10
2235.404213438817
 20
-990.5836869744571
 30
0.0
 10
2237.033188286855
 20
-990.9089253527119
 30
0.0
 10
2238.144899119497
 20
-991.31131931982
 30
0.0
 10
2238.525759847151
 20
-991.640731525477
 30
0.0
 10
2238.577080352367
 20
-991.6851194069028
 30
0.0
  0
LWPOLYLINE
  5
125
330
1F
100
AcDbEntity
  8
0
  6
Continuous
 62
     7
370
    25
100
AcDbPolyline
 90
       29
 70
   128
 43
0.0
 10
2190.4480070255
 20
-958.3116626198
 10
2191.4253289518
 20
-959.0191419497
 10
2192.1054428693
 20
-959.834428703
 10
2192.4542450264
 20
-960.7166409974
 10
2192.4542450264
 20
-961.6215410249
 10
2192.1054428693
 20
-962.5037533193
 10
2191.4253289518
 20
-963.3190400726
 10
2190.4480070255
 20
-964.0265194025
 10
2189.2224840928
 20
-964.5907153413
 10
2187.8102129909
 20
-964.9833367488
 10
2186.2820108899
 20
-965.184695948
 10
2184.7145082245
 20
-965.184695948
 10
2183.1863061235
 20
-964.9833367488
 10
2181.7740350216
 20
-964.5907153413
 10
2180.5485120889
 20
-964.0265194025
 10
2179.5711901626
 20
-963.3190400726
 10
2178.891076245
 20
-962.5037533193
 10
2178.5422740879
 20
-961.6215410249
 10
2178.5422740879
 20
-960.7166409974
 10
2178.891076245
 20
-959.834428703
 10
2179.5711901626
 20
-959.0191419497
 10
2180.5485120889
 20
-958.3116626198
 10
2181.7740350216
 20
-957.747466681
 10
2183.1863061235
 20
-957.3548452735
 10
2184.7145082245
 20
-957.1534860743
 10
2186.2820108899
 20
-957.1534860743
 10
2187.8102129909
 20
-957.3548452735
 10
2189.2224840928
 20
-957.747466681
 10
2190.4480070255
 20
-958.3116626198
  0
LWPOLYLINE
  5
126
330
1F
100
AcDbEntity
  8
0
  6
Continuous
 62
     7
370
    25
100
AcDbPolyline
 90
       24
 70
   128
 43
0.0
 10
2189.0337934631
 20
-959.1280707316
 10
2189.8565619074
 20
-959.7544179814
 10
2190.3560950042
 20
-960.4856850582
 10
2190.495344669
 20
-961.2676372281
 10
2190.2639833913
 20
-962.0422806759
 10
2189.6791701785
 20
-962.7521636409
 10
2188.7842779513
 20
-963.3446373509
 10
2187.6456767723
 20
-963.7757607415
 10
2186.3478114823
 20
-964.0135593628
 10
2184.9869388125
 20
-964.0403967791
 10
2183.6639884631
 20
-963.8542825819
 10
2182.4770776096
 20
-963.4690200099
 10
2181.5142340001
 20
-962.9131822255
 10
2180.8468673405
 20
-962.2279931744
 10
2180.5244731629
 20
-961.464270194
 10
2180.5709619686
 20
-960.678655124
 10
2180.9828858956
 20
-959.9294134401
 10
2181.7296944306
 20
-959.2721129705
 10
2182.7560002009
 20
-958.7555026842
 10
2183.9856868028
 20
-958.4178972025
 10
2185.3275540063
 20
-958.2843351798
 10
2186.6820816595
 20
-958.3647223003
 10
2187.9488106431
 20
-958.6530966188
 10
2189.0337934631
 20
-959.1280707316
  0
SPLINE
  5
127
330
1F
100
AcDbEntity
  8
0
  6
Continuous
 62
     7
370
    25
100
AcDbSpline
210
0.0
220
0.0
230
1.0
 70
     8
 71
     3
 72
    13
 73
     9
 74
     0
 42
0.00000001
 43
0.00000001
 40
0.0
 40
0.0
 40
0.0
 40
0.0
 40
0.1258080548744169
 40
0.3381582626017877
 40
0.5505165104374765
 40
0.7631130028831862
 40
0.9760330970306744
 40
1.0
 40
1.0
 40
1.0
 40
1.0
 10
2182.063734444612
 20
-963.2156109881937
 30
0.0
 10
2182.297686534461
 20
-963.0821098477965
 30
0.0
 10
2182.926524110199
 20
-962.7232734144916
 30
0.0
 10
2184.326805229945
 20
-962.4027999860979
 30
0.0
 10
2186.02729239318
 20
-962.2878374954197
 30
0.0
 10
2187.641813253704
 20
-962.5130093979728
 30
0.0
 10
2188.722288658068
 20
-962.8183617927083
 30
0.0
 10
2189.079195624655
 20
-963.0873886705368
 30
0.0
 10
2189.115305477628
 20
-963.1146073070828
 30
0.0
  0
LWPOLYLINE
  5
128
330
1F
100
AcDbEntity
  8
0
  6
Continuous
 62
     1
370
    25
100
AcDbPolyline
 90
      122
 70
   128
 43
0.0
 10
1629.0405994651
 20
-1079.9802529576
 10
1638.135422237
 20
-1075.0004615463
 10
1647.4876808026
 20
-1070.4163181907
 10
1657.0630379368
 20
-1066.2470895487
 10
1666.854931168
 20
-1062.4956330012
 10
1676.8566496217
 20
-1059.1645196092
 10
1687.0613386197
 20
-1056.2560323515
 10
1697.4620043779
 20
-1053.7721645598
 10
1708.0515187995
 20
-1051.7146185532
 10
1718.8226243603
 20
-1050.0848044708
 10
1729.7679390825
 20
-1048.8838393059
 10
1740.8799615941
 20
-1048.11254614
 10
1752.1510762701
 20
-1047.7714535788
 10
1763.5735584513
 20
-1047.8607953902
 10
1775.1395797392
 20
-1048.3805103438
 10
1786.8412133603
 20
-1049.3302422528
 10
1798.6704395997
 20
-1050.7093402186
 10
1810.6191512963
 20
-1052.5168590762
 10
1822.6791594002
 20
-1054.7515600425
 10
1834.8421985842
 20
-1057.411911565
 10
1847.0999329088
 20
-1060.4960903718
 10
1859.4439615351
 20
-1064.0019827207
 10
1871.8658244826
 20
-1067.9271858483
 10
1884.3570084268
 20
-1072.2690096163
 10
1896.9089525343
 20
-1077.0244783557
 10
1909.5130543294
 20
-1082.1903329057
 10
1922.1606755906
 20
-1087.7630328477
 10
1934.8431482698
 20
-1093.7387589314
 10
1947.5517804339
 20
-1100.1134156928
 10
1960.2778622211
 20
-1106.8826342604
 10
1973.0126718106
 20
-1114.0417753501
 10
1985.7474814002
 20
-1121.585932444
 10
1998.4735631874
 20
-1129.5099351539
 10
2011.1821953515
 20
-1137.808352764
 10
2023.8646680307
 20
-1146.4754979534
 10
2036.5122892918
 20
-1155.5054306938
 10
2049.116391087
 20
-1164.8919623202
 10
2061.6683351945
 20
-1174.6286597729
 10
2074.1595191387
 20
-1184.7088500056
 10
2086.5813820862
 20
-1195.1256245596
 10
2098.9254107125
 20
-1205.8718442979
 10
2111.183145037
 20
-1216.9401442983
 10
2123.346184221
 20
-1228.3229389008
 10
2135.4061923249
 20
-1240.0124269066
 10
2147.3549040216
 20
-1252.0005969245
 10
2159.1841302609
 20
-1264.2792328616
 10
2170.8857638821
 20
-1276.8399195542
 10
2182.4517851699
 20
-1289.674048535
 10
2193.8742673512
 20
-1302.7728239331
 10
2205.1453820271
 20
-1316.1272685022
 10
2216.2574045388
 20
-1329.7282297729
 10
2227.202719261
 20
-1343.5663863259
 10
2237.9738248218
 20
-1357.6322541799
 10
2248.5633392433
 20
-1371.9161932916
 10
2258.9640050015
 20
-1386.4084141626
 10
2269.1686939995
 20
-1401.0989845488
 10
2279.1704124532
 20
-1415.9778362669
 10
2288.9623056844
 20
-1431.0347720952
 10
2298.5376628186
 20
-1446.2594727621
 10
2307.8899213843
 20
-1461.6415040181
 10
2317.0126718106
 20
-1477.1703237873
 10
2325.8996618201
 20
-1492.8352893925
 10
2334.5448007138
 20
-1508.6256648486
 10
2342.9421635452
 20
-1524.530628221
 10
2351.0859951814
 20
-1540.5392790424
 10
2358.9707142469
 20
-1556.6406457831
 10
2366.5909169492
 20
-1572.8236933707
 10
2373.9413807819
 20
-1589.0773307526
 10
2381.0170681044
 20
-1605.3904184977
 10
2387.8131295939
 20
-1621.7517764305
 10
2394.3249075693
 20
-1638.1501912936
 10
2400.5479391834
 20
-1654.5744244325
 10
2406.4779594811
 20
-1671.0132194982
 10
2412.1109043228
 20
-1687.4553101618
 10
2417.4429131693
 20
-1703.8894278356
 10
2422.4703317281
 20
-1720.3043093962
 10
2427.1897144578
 20
-1736.6887049038
 10
2431.597826929
 20
-1753.0313853121
 10
2435.6916480418
 20
-1769.3211501644
 10
2439.4683720957
 20
-1785.5468352693
 10
2442.9254107125
 20
-1801.697320353
 10
2446.0603946107
 20
-1817.7615366795
 10
2448.871175229
 20
-1833.7284746376
 10
2451.3558261987
 20
-1849.5871912854
 10
2453.5126446642
 20
-1865.3268178508
 10
2455.3401524498
 20
-1880.9365671799
 10
2456.837097073
 20
-1896.4057411302
 10
2458.0024526026
 20
-1911.7237379027
 10
2458.8354203623
 20
-1926.8800593074
 10
2459.3354294775
 20
-1941.8643179588
 10
2459.502137267
 20
-1956.6662443945
 10
2459.3354294775
 20
-1971.2756941134
 10
2458.8354203623
 20
-1985.6826545286
 10
2458.0024526026
 20
-1999.8772518289
 10
2456.837097073
 20
-2013.8497577463
 10
2455.3401524498
 20
-2027.5905962234
 10
2453.5126446642
 20
-2041.0903499758
 10
2451.3558261987
 20
-2054.3397669465
 10
2448.871175229
 20
-2067.3297666471
 10
2446.0603946107
 20
-2080.0514463805
 10
2442.9254107125
 20
-2092.496087343
 10
2439.4683720957
 20
-2104.6551605992
 10
2435.6916480418
 20
-2116.5203329278
 10
2431.597826929
 20
-2128.0834725322
 10
2427.1897144578
 20
-2139.3366546142
 10
2422.4703317281
 20
-2150.2721668049
 10
2417.4429131692
 20
-2160.8825144504
 10
2412.1109043228
 20
-2171.1604257486
 10
2406.4779594811
 20
-2181.0988567324
 10
2400.5479391834
 20
-2190.6909960975
 10
2394.3249075693
 20
-2199.930269871
 10
2387.8131295939
 20
-2208.8103459159
 10
2381.0170681044
 20
-2217.3251382718
 10
2373.9413807819
 20
-2225.4688113253
 10
2366.5909169492
 20
-2233.2357838097
 10
2358.9707142469
 20
-2240.6207326299
 10
2351.0859951814
 20
-2247.6185965111
 10
2342.9421635452
 20
-2254.2245794668
 10
2334.5448007138
 20
-2260.4341540862
 10
2325.8996618201
 20
-2266.2430646372
 10
2317.0126718106
 20
-2271.6473299825
 10
2316.9844432384
 20
-2271.6636286132
  0
LWPOLYLINE
  5
129
330
1F
100
AcDbEntity
  8
0
  6
Continuous
 62
     1
370
    25
100
AcDbPolyline
 90
      122
 70
   128
 43
0.0
 10
1660.8604329372
 20
-1061.6110540935
 10
1669.9552273903
 20
-1056.6312790303
 10
1679.307485956
 20
-1052.0471356747
 10
1688.8828430902
 20
-1047.8779070327
 10
1698.6747363214
 20
-1044.1264504852
 10
1708.6764547751
 20
-1040.7953370932
 10
1718.8811437731
 20
-1037.8868498355
 10
1729.2818095313
 20
-1035.4029820438
 10
1739.8713239529
 20
-1033.3454360372
 10
1750.6424295137
 20
-1031.7156219548
 10
1761.5877442359
 20
-1030.5146567899
 10
1772.6997667475
 20
-1029.743363624
 10
1783.9708814235
 20
-1029.4022710628
 10
1795.3933636047
 20
-1029.4916128742
 10
1806.9593848926
 20
-1030.0113278278
 10
1818.6610185137
 20
-1030.9610597368
 10
1830.4902447531
 20
-1032.3401577026
 10
1842.4389564497
 20
-1034.1476765602
 10
1854.4989645536
 20
-1036.3823775264
 10
1866.6620037376
 20
-1039.042729049
 10
1878.9197380622
 20
-1042.1269078558
 10
1891.2637666885
 20
-1045.6328002047
 10
1903.685629636
 20
-1049.5580033323
 10
1916.1768135802
 20
-1053.8998271003
 10
1928.7287576877
 20
-1058.6552958397
 10
1941.3328594828
 20
-1063.8211503897
 10
1953.980480744
 20
-1069.3938503317
 10
1966.6629534232
 20
-1075.3695764154
 10
1979.3715855873
 20
-1081.7442331768
 10
1992.0976673745
 20
-1088.5134517444
 10
2004.832476964
 20
-1095.6725928341
 10
2017.5672865536
 20
-1103.216749928
 10
2030.2933683408
 20
-1111.1407526379
 10
2043.0020005049
 20
-1119.439170248
 10
2055.6844731841
 20
-1128.1063154374
 10
2068.3320944452
 20
-1137.1362481777
 10
2080.9361962404
 20
-1146.5227798042
 10
2093.4881403479
 20
-1156.2594772568
 10
2105.9793242921
 20
-1166.3396674896
 10
2118.4011872396
 20
-1176.7564420436
 10
2130.7452158659
 20
-1187.5026617819
 10
2143.0029501904
 20
-1198.5709617823
 10
2155.1659893744
 20
-1209.9537563848
 10
2167.2259974783
 20
-1221.6432443906
 10
2179.174709175
 20
-1233.6314144085
 10
2191.0039354143
 20
-1245.9100503456
 10
2202.7055690355
 20
-1258.4707370382
 10
2214.2715903233
 20
-1271.304866019
 10
2225.6940725046
 20
-1284.4036414171
 10
2236.9651871805
 20
-1297.7580859862
 10
2248.0772096922
 20
-1311.3590472569
 10
2259.0225244144
 20
-1325.1972038099
 10
2269.7936299751
 20
-1339.2630716639
 10
2280.3831443967
 20
-1353.5470107756
 10
2290.7838101549
 20
-1368.0392316466
 10
2300.9884991529
 20
-1382.7298020328
 10
2310.9902176066
 20
-1397.6086537509
 10
2320.7821108378
 20
-1412.6655895792
 10
2330.357467972
 20
-1427.8902902461
 10
2339.7097265377
 20
-1443.272321502
 10
2348.832476964
 20
-1458.8011412713
 10
2357.7194669735
 20
-1474.4661068765
 10
2366.3646058672
 20
-1490.2564823326
 10
2374.7619686986
 20
-1506.161445705
 10
2382.9058003348
 20
-1522.1700965264
 10
2390.7905194003
 20
-1538.2714632671
 10
2398.4107221026
 20
-1554.4545108546
 10
2405.7611859353
 20
-1570.7081482366
 10
2412.8368732578
 20
-1587.0212359817
 10
2419.6329347473
 20
-1603.3825939145
 10
2426.1447127227
 20
-1619.7810087776
 10
2432.3677443368
 20
-1636.2052419165
 10
2438.2977646345
 20
-1652.6440369822
 10
2443.9307094762
 20
-1669.0861276458
 10
2449.2627183226
 20
-1685.5202453196
 10
2454.2901368815
 20
-1701.9351268802
 10
2459.0095196112
 20
-1718.3195223878
 10
2463.4176320824
 20
-1734.6622027961
 10
2467.5114531952
 20
-1750.9519676483
 10
2471.288177249
 20
-1767.1776527533
 10
2474.7452158659
 20
-1783.3281378369
 10
2477.8801997641
 20
-1799.3923541635
 10
2480.6909803824
 20
-1815.3592921216
 10
2483.1756313521
 20
-1831.2180087694
 10
2485.3324498176
 20
-1846.9576353348
 10
2487.1599576032
 20
-1862.5673846639
 10
2488.6569022264
 20
-1878.0365586142
 10
2489.822257756
 20
-1893.3545553866
 10
2490.6552255157
 20
-1908.5108767914
 10
2491.1552346309
 20
-1923.4951354428
 10
2491.3219424204
 20
-1938.2970618785
 10
2491.1552346309
 20
-1952.9065115974
 10
2490.6552255157
 20
-1967.3134720125
 10
2489.822257756
 20
-1981.5080693128
 10
2488.6569022264
 20
-1995.4805752303
 10
2487.1599576032
 20
-2009.2214137074
 10
2485.3324498176
 20
-2022.7211674598
 10
2483.1756313521
 20
-2035.9705844305
 10
2480.6909803824
 20
-2048.9605841311
 10
2477.8801997641
 20
-2061.6822638645
 10
2474.7452158659
 20
-2074.126904827
 10
2471.288177249
 20
-2086.2859780832
 10
2467.5114531952
 20
-2098.1511504118
 10
2463.4176320824
 20
-2109.7142900162
 10
2459.0095196112
 20
-2120.9674720982
 10
2454.2901368815
 20
-2131.9029842889
 10
2449.2627183226
 20
-2142.5133319344
 10
2443.9307094762
 20
-2152.7912432326
 10
2438.2977646345
 20
-2162.7296742163
 10
2432.3677443368
 20
-2172.3218135815
 10
2426.1447127227
 20
-2181.5610873549
 10
2419.6329347473
 20
-2190.4411633999
 10
2412.8368732578
 20
-2198.9559557558
 10
2405.7611859353
 20
-2207.0996288093
 10
2398.4107221026
 20
-2214.8666012936
 10
2390.7905194003
 20
-2222.2515501139
 10
2382.9058003348
 20
-2229.2494139951
 10
2374.7619686986
 20
-2235.8553969507
 10
2366.3646058672
 20
-2242.0649715702
 10
2357.7194669735
 20
-2247.8738821211
 10
2348.832476964
 20
-2253.2781474665
 10
2348.8045209908
 20
-2253.2942887294
  0
ENDSEC
  0
SECTION
  2
OBJECTS
  0
DICTIONARY
  5
C
330
0
100
AcDbDictionary
281
     1
  3
ACAD_GROUP
350
D
  3
ACAD_LAYOUT
350
1A
  3
ACAD_MLINESTYLE
350
17
  3
ACAD_PLOTSETTINGS
350
19
  3
ACAD_PLOTSTYLENAME
350
E
  3
ACAD_SCALELIST
350
47
  3
DWGPROPS
350
12A
  0
DICTIONARY
  5
D
102
{ACAD_REACTORS
330
C
102
}
330
C
100
AcDbDictionary
281
     1
  0
DICTIONARY
  5
1A
102
{ACAD_REACTORS
330
C
102
}
330
C
100
AcDbDictionary
281
     1
  3
Layout1
350
1E
  3
Layout2
350
26
  3
Model
350
22
  0
DICTIONARY
  5
17
102
{ACAD_REACTORS
330
C
102
}
330
C
100
AcDbDictionary
281
     1
  3
Standard
350
18
  0
DICTIONARY
  5
19
102
{ACAD_REACTORS
330
C
102
}
330
C
100
AcDbDictionary
281
     1
  0
ACDBDICTIONARYWDFLT
  5
E
102
{ACAD_REACTORS
330
C
102
}
330
C
100
AcDbDictionary
281
     1
  3
Normal
350
F
100
AcDbDictionaryWithDefault
340
F
  0
DICTIONARY
  5
47
102
{ACAD_REACTORS
330
C
102
}
330
C
100
AcDbDictionary
281
     1
  3
A0
350
48
  3
A1
350
49
  3
A2
350
4A
  3
A3
350
4B
  3
A4
350
4C
  3
A5
350
4D
  3
A6
350
4E
  3
A7
350
4F
  3
A8
350
50
  3
A9
350
51
  3
B0
350
52
  3
B1
350
53
  3
B2
350
54
  3
B3
350
55
  3
B4
350
56
  3
B5
350
57
  3
B6
350
58
  3
B7
350
59
  3
B8
350
5A
  3
B9
350
5B
  3
C0
350
5C
  3
C1
350
5D
  3
C2
350
5E
  3
C3
350
5F
  3
C4
350
60
  3
C5
350
61
  3
C6
350
62
  3
C7
350
63
  3
C8
350
64
  3
C9
350
65
  3
D0
350
66
  3
D1
350
67
  3
D2
350
68
  0
XRECORD
  5
12A
102
{ACAD_REACTORS
330
C
102
}
330
C
100
AcDbXrecord
280
     1
  1
DWGPROPS COOKIE
  2

  3

  4

  6

  7

  8
b.kav
  9

300
=
301
=
302
=
303
=
304
=
305
=
306
=
307
=
308
=
309
=
 40
0.0
 41
2459741.476774572
 42
2459741.476774826
  1

 90
        0
  0
LAYOUT
  5
1E
102
{ACAD_REACTORS
330
1A
102
}
330
1A
100
AcDbPlotSettings
  1

  2
none_device
  4

  6

 40
0.0
 41
0.0
 42
0.0
 43
0.0
 44
0.0
 45
0.0
 46
0.0
 47
0.0
 48
0.0
 49
0.0
140
0.0
141
0.0
142
1.0
143
1.0
 70
   688
 72
     1
 73
     0
 74
     5
  7

 75
    16
147
1.0
148
0.0
149
0.0
100
AcDbLayout
  1
Layout1
 70
     1
 71
     1
 10
0.0
 20
0.0
 11
420.0
 21
297.0
 12
0.0
 22
0.0
 32
0.0
 14
1.0000000000E+20
 24
1.0000000000E+20
 34
1.0000000000E+20
 15
-1.0000000000E+20
 25
-1.0000000000E+20
 35
-1.0000000000E+20
146
0.0
 13
0.0
 23
0.0
 33
0.0
 16
1.0
 26
0.0
 36
0.0
 17
0.0
 27
1.0
 37
0.0
 76
     0
330
1B
  0
LAYOUT
  5
26
102
{ACAD_REACTORS
330
1A
102
}
330
1A
100
AcDbPlotSettings
  1

  2
none_device
  4

  6

 40
0.0
 41
0.0
 42
0.0
 43
0.0
 44
0.0
 45
0.0
 46
0.0
 47
0.0
 48
0.0
 49
0.0
140
0.0
141
0.0
142
1.0
143
1.0
 70
   688
 72
     1
 73
     0
 74
     5
  7

 75
    16
147
1.0
148
0.0
149
0.0
100
AcDbLayout
  1
Layout2
 70
     1
 71
     2
 10
0.0
 20
0.0
 11
0.0
 21
0.0
 12
0.0
 22
0.0
 32
0.0
 14
0.0
 24
0.0
 34
0.0
 15
0.0
 25
0.0
 35
0.0
146
0.0
 13
0.0
 23
0.0
 33
0.0
 16
1.0
 26
0.0
 36
0.0
 17
0.0
 27
1.0
 37
0.0
 76
     0
330
23
  0
LAYOUT
  5
22
102
{ACAD_REACTORS
330
1A
102
}
330
1A
100
AcDbPlotSettings
  1

  2
none_device
  4
Letter_(8.50_x_11.00_Inches)
  6

 40
6.35
 41
6.35
 42
6.35000508
 43
6.35000508
 44
215.9
 45
279.4
 46
0.0
 47
0.0
 48
0.0
 49
0.0
140
0.0
141
0.0
142
1.0
143
1.0
 70
  1712
 72
     1
 73
     0
 74
     0
  7

 75
     0
147
1.0
148
0.0
149
0.0
100
AcDbLayout
  1
Model
 70
     1
 71
     0
 10
0.0
 20
0.0
 11
279.4
 21
215.9
 12
0.0
 22
0.0
 32
0.0
 14
0.0
 24
0.0
 34
0.0
 15
279.4
 25
215.9
 35
0.0
146
0.0
 13
0.0
 23
0.0
 33
0.0
 16
1.0
 26
0.0
 36
0.0
 17
0.0
 27
1.0
 37
0.0
 76
     0
330
1F
331
29
  0
MLINESTYLE
  5
18
102
{ACAD_REACTORS
330
17
102
}
330
17
100
AcDbMlineStyle
  2
Standard
 70
     0
  3

 62
   256
 51
90.0
 52
90.0
 71
     2
 49
0.5
 62
   256
  6
BYLAYER
 49
-0.5
 62
   256
  6
BYLAYER
  0
ACDBPLACEHOLDER
  5
F
102
{ACAD_REACTORS
330
E
102
}
330
E
  0
SCALE
  5
48
102
{ACAD_REACTORS
330
47
102
}
330
47
100
AcDbScale
 70
     0
300
1:1
140
1.0
141
1.0
290
     1
  0
SCALE
  5
49
102
{ACAD_REACTORS
330
47
102
}
330
47
100
AcDbScale
 70
     0
300
1:2
140
1.0
141
2.0
290
     0
  0
SCALE
  5
4A
102
{ACAD_REACTORS
330
47
102
}
330
47
100
AcDbScale
 70
     0
300
1:4
140
1.0
141
4.0
290
     0
  0
SCALE
  5
4B
102
{ACAD_REACTORS
330
47
102
}
330
47
100
AcDbScale
 70
     0
300
1:5
140
1.0
141
5.0
290
     0
  0
SCALE
  5
4C
102
{ACAD_REACTORS
330
47
102
}
330
47
100
AcDbScale
 70
     0
300
1:8
140
1.0
141
8.0
290
     0
  0
SCALE
  5
4D
102
{ACAD_REACTORS
330
47
102
}
330
47
100
AcDbScale
 70
     0
300
1:10
140
1.0
141
10.0
290
     0
  0
SCALE
  5
4E
102
{ACAD_REACTORS
330
47
102
}
330
47
100
AcDbScale
 70
     0
300
1:16
140
1.0
141
16.0
290
     0
  0
SCALE
  5
4F
102
{ACAD_REACTORS
330
47
102
}
330
47
100
AcDbScale
 70
     0
300
1:20
140
1.0
141
20.0
290
     0
  0
SCALE
  5
50
102
{ACAD_REACTORS
330
47
102
}
330
47
100
AcDbScale
 70
     0
300
1:30
140
1.0
141
30.0
290
     0
  0
SCALE
  5
51
102
{ACAD_REACTORS
330
47
102
}
330
47
100
AcDbScale
 70
     0
300
1:40
140
1.0
141
40.0
290
     0
  0
SCALE
  5
52
102
{ACAD_REACTORS
330
47
102
}
330
47
100
AcDbScale
 70
     0
300
1:50
140
1.0
141
50.0
290
     0
  0
SCALE
  5
53
102
{ACAD_REACTORS
330
47
102
}
330
47
100
AcDbScale
 70
     0
300
1:100
140
1.0
141
100.0
290
     0
  0
SCALE
  5
54
102
{ACAD_REACTORS
330
47
102
}
330
47
100
AcDbScale
 70
     0
300
2:1
140
2.0
141
1.0
290
     0
  0
SCALE
  5
55
102
{ACAD_REACTORS
330
47
102
}
330
47
100
AcDbScale
 70
     0
300
4:1
140
4.0
141
1.0
290
     0
  0
SCALE
  5
56
102
{ACAD_REACTORS
330
47
102
}
330
47
100
AcDbScale
 70
     0
300
8:1
140
8.0
141
1.0
290
     0
  0
SCALE
  5
57
102
{ACAD_REACTORS
330
47
102
}
330
47
100
AcDbScale
 70
     0
300
10:1
140
10.0
141
1.0
290
     0
  0
SCALE
  5
58
102
{ACAD_REACTORS
330
47
102
}
330
47
100
AcDbScale
 70
     0
300
100:1
140
100.0
141
1.0
290
     0
  0
SCALE
  5
59
102
{ACAD_REACTORS
330
47
102
}
330
47
100
AcDbScale
 70
     0
300
1/128" = 1'-0"
140
0.0078125
141
12.0
290
     0
  0
SCALE
  5
5A
102
{ACAD_REACTORS
330
47
102
}
330
47
100
AcDbScale
 70
     0
300
1/64" = 1'-0"
140
0.015625
141
12.0
290
     0
  0
SCALE
  5
5B
102
{ACAD_REACTORS
330
47
102
}
330
47
100
AcDbScale
 70
     0
300
1/32" = 1'-0"
140
0.03125
141
12.0
290
     0
  0
SCALE
  5
5C
102
{ACAD_REACTORS
330
47
102
}
330
47
100
AcDbScale
 70
     0
300
1/16" = 1'-0"
140
0.0625
141
12.0
290
     0
  0
SCALE
  5
5D
102
{ACAD_REACTORS
330
47
102
}
330
47
100
AcDbScale
 70
     0
300
3/32" = 1'-0"
140
0.09375
141
12.0
290
     0
  0
SCALE
  5
5E
102
{ACAD_REACTORS
330
47
102
}
330
47
100
AcDbScale
 70
     0
300
1/8" = 1'-0"
140
0.125
141
12.0
290
     0
  0
SCALE
  5
5F
102
{ACAD_REACTORS
330
47
102
}
330
47
100
AcDbScale
 70
     0
300
3/16" = 1'-0"
140
0.1875
141
12.0
290
     0
  0
SCALE
  5
60
102
{ACAD_REACTORS
330
47
102
}
330
47
100
AcDbScale
 70
     0
300
1/4" = 1'-0"
140
0.25
141
12.0
290
     0
  0
SCALE
  5
61
102
{ACAD_REACTORS
330
47
102
}
330
47
100
AcDbScale
 70
     0
300
3/8" = 1'-0"
140
0.375
141
12.0
290
     0
  0
SCALE
  5
62
102
{ACAD_REACTORS
330
47
102
}
330
47
100
AcDbScale
 70
     0
300
1/2" = 1'-0"
140
0.5
141
12.0
290
     0
  0
SCALE
  5
63
102
{ACAD_REACTORS
330
47
102
}
330
47
100
AcDbScale
 70
     0
300
3/4" = 1'-0"
140
0.75
141
12.0
290
     0
  0
SCALE
  5
64
102
{ACAD_REACTORS
330
47
102
}
330
47
100
AcDbScale
 70
     0
300
1" = 1'-0"
140
1.0
141
12.0
290
     0
  0
SCALE
  5
65
102
{ACAD_REACTORS
330
47
102
}
330
47
100
AcDbScale
 70
     0
300
1-1/2" = 1'-0"
140
1.5
141
12.0
290
     0
  0
SCALE
  5
66
102
{ACAD_REACTORS
330
47
102
}
330
47
100
AcDbScale
 70
     0
300
3" = 1'-0"
140
3.0
141
12.0
290
     0
  0
SCALE
  5
67
102
{ACAD_REACTORS
330
47
102
}
330
47
100
AcDbScale
 70
     0
300
6" = 1'-0"
140
6.0
141
12.0
290
     0
  0
SCALE
  5
68
102
{ACAD_REACTORS
330
47
102
}
330
47
100
AcDbScale
 70
     0
300
1'-0" = 1'-0"
140
12.0
141
12.0
290
     0
  0
ENDSEC
  0
EOF
